Guitar Tabs, Chords and Lyrics
Server problems seems to be fixed. Chordie has been experiencing problems with songs disappearing. These issues now seems to be fixed, but still verifying the fix. If you find anything strange, please email admin@chordie.com.


Secret Door  Arctic Monkeys

secret door
I don't know if the lyrics are right as the chords...so if you think that it needs
a correction, please let me know :)
intro: Bb-Dm# x2
 
 E||------6-8-6-5-6/10-5---------------|
 B||-----------------------------------|
 G||-----------------------------------|
 D||-----------------------------------|
 A||-----------------------------------|
 E||-----------------------------------|

[Bb]Fools On P[Dm#]arade
Cavort and carry[Gm] on
The wait in l[Dm]ines,
That you would [Cm]rather be beside than infront[Dm] of
But shes n[Cm]ever been the kind to be hollowed[Dm] by the stares.
 
 E||------5----6-8-5----------------------------------------------------------------|
 B||--8-----6--------6---8--6-------------------------8/11---11/8-------------------|
 G||---7-------------------7---5--7---5---------------------------------------------|
 D||---------------------------------8----7--5--------------------------------------|
 A||--------------------------------------------------------------------------------|
 E||--------------------------------------------------------------------------------|

[Gm-Dm-Bb]She swam out of tonights fantasm
Grabbed my hand and made it very clear
There's absolutely nothing for us here
It's a magnolia celebration to be attempted on a wednesday night
It's better than to get a reputation for a miserable little tyke
At least thats the conclusion you came to in this overture[Gm-Bb-Dm]
[Dm]The secret door swings behin[Gm]d us
shes saying n[Cm]othing
shes just [Bb]wriggling a[Dm]long
[Gm-Dm-Bb]Her arms were folded most indignant
Not looking like she was soon to leave
I had to squint in order to believe
and then like a pull and a push in on a bookshelf
I'm unveiling the unexpected
I was ‚?¶
‚?¶stand corrected
How could such a creature survive in such a habitat[Gm-Bb-Dm]
[Dm]The secret door swings behind us[Gm]
She's saying nothing[Cm]
She's just wrigg[Gm]ling along[Gm-Bb-Dm]
[Dm]and even if they were to fi[Gm]nd us
I wouldn't [Cm]notice, i'm comple[Dm]tely occupied
[F]at all the
[Bb]Fools On P[Dm#]arade
Cavort and carry o[Gm]n
The wait in line[Dm]s,
That you would[Cm] rather be beside than infron[Dm]t of
But shes n[Cm]ever been the kind to be hollowed by the st[F]ares.
Fools on parade
Frolic and f*ck about to make her gaze
Turn to a scribble on a page by a picture,
That holds her options
But you‚??re daft to think she'd care
Fools on parade
Fools on parade F
Fools on parade ...... to singalong

Important: The song above is NOT stored on the Chordie server. The original song is hosted at www.azchords.com. Chordie works as a search engine and provides on-the-fly formatting. Chordie does not index songs against artists'/composers' will. To remove this song please click here.

Text color:
Chord color:
Chord grids: 
Font size:    
Page size: 

Bb Cm Dm F Gm
Rate #3 of 7 versions

Jango Player

Login - add to songbook

SHARE PAGE  



You need to log in to post comments