Guitar Tabs, Chords and Lyrics
Server problems seems to be fixed. Chordie has been experiencing problems with songs disappearing. These issues now seems to be fixed, but still verifying the fix. If you find anything strange, please email admin@chordie.com.


Still Take You Home  Arctic Monkeys

 
 -------------------------------------------------------------------------------
 -------------------------------------------------------------------------------

Tuning: E A D G B E (Standard)
Chords Used-
[A#] [Dm] [C#m] [D#] [F#] [F] [C#]  
 
 e|--6--10--9---6--9--8--4-------------------------------------------------------------|
 B|--6--10--9---6--9--8--4-------------------------------------------------------------|
 G|--7--10--9---8--11-10-6-------------------------------------------------------------|
 D|--8--12--11--8--11-10-6-------------------------------------------------------------|
 A|--8--12--11--6--9--9--4-------------------------------------------------------------|
 E|--6--10--9--------------------------------------------------------------------------|

Intro-
A# Dm C#m x12
A# D# F# F x4
Verse-
[A#]Oh, spending all of your money on trendy ha[D#]ircuts that you [F#]read were [F]cool
[A#]And your probably alrite, but under [D#]these lights you [F#]look [F]beutiful
[A#]And im struglin', I can see through your [D#]fake tan[F#] [F]
[A#]And yeh you know it for a fact that everybodies eating out of your[D#] hand[F#] [F]
Chorus-
[D#] What do you kno[C#]w, O! You know nothing
[A#]Yeh, But i'll still take you home, yeh I'll still take you home
[D#] What do you kno[C#]w, O! You dont know nothing[A#]
(bass and lead play riffs, no rhythm guitar)
Verse 2-
[A#]Well fancy seeing you in here, your all [D#]tarted up and you dont [F#]look the [F]same
[A#]Well I aint seen you since last year, [D#]and suprisingly enough youve [F#]forgotten[F] my name.
[A#]But yeh you know it, and you knew it all [D#]along[F#] [F]
[A#]And yeh you say you have forgotten but your fibbing and wont tell [D#]me i'm [F#]wro[F]ng
Chorus
Break-
[D#] Woah woah wo[C#]ah, woah woah w[A#]oah, da da da da dadada da la da da da daa
[D#] Woah woah wo[C#]ah, woah woah W[A#]OAH
A# Dm C#m x12
Chorus
Verse 3-
[A#]So your sold to the fashion, your a [D#]top shop princess, a [F#]rock star [F]too
[A#]Wheres the love and the pasion? Well I [D#]spose thats nothing to [F#]do with [F]you
[A#]But its alrite, O I'll put it on o[D#]ne side[F#] [F]
[A#]Yeh cos everybodies looking, you got control of everyones [D#]eyes,
[F#]including [F]mine.[A#]
And there you go :-) Its pish easy, i'll probably get round to working out the lead
bits when I have some strings on my electric, but they all seem to be in the D#
pentatonic, so just jam around in that.
| / slide up
| \ slide down
| H hammer-on
| p pull-off
| ~ vibrato
| + harmonic
| x Mute note
============================= ==================================================

Important: The song above is NOT stored on the Chordie server. The original song is hosted at www.azchords.com. Chordie works as a search engine and provides on-the-fly formatting. Chordie does not index songs against artists'/composers' will. To remove this song please click here.

Text color:
Chord color:
Chord grids: 
Font size:    
Page size: 

A# C# C#m D# Dm F F#
Rate #1 of 3 versions

Login - add to songbook

SHARE PAGE  



You need to log in to post comments