Guitar Tabs, Chords and Lyrics
Update 25:10. 13:00. Site is back up running again. Songbooks are recovered. Woring on getting search back up..


Angie  Aslan

Original By: The Rolling Stones
Intro
 
 E-000300000--0000-33333----------------------------------------------
 B-111111131--0000-33333-1\3/1----------------------------------------
 G-222222222--1111-00000-2\4/2-----------0----------------------------
 D-222222222--2222-00000-3\5/3-3-2-0---2---2--------------------------
 A-000000000--2222-22222-------------3-------3-2-0--------------------
 E-----------------33333----------------------------------------------

Intro X 4
Angie‚?¶ Angie‚?¶ when will those clouds all disappear,
Angie‚?¶ Angie‚?¶ where will it lead us from here,
With no lo[G]ving in our souls
And no m[Dm]oney in our cl[Am]othes,
Y[C]ou can‚??[Asus]t say we‚??re [G]satisfied‚?¶
Intro
Angie‚?¶ Angie‚?¶ you can‚??t say we never tries
Intro X 2
Angie‚?¶ you‚??re beautiful yeah,
Remember all those nights we cried,
All the dr[G]eams we held so close,
Seemed to [Dm]all go up in sm[Am]oke,
[G]Let me wh[Asus]isper in your e[G]ar‚?¶
Intro
Angie‚?¶ Angie‚?¶ where will it lead is from here
Oh An[G]gie don‚??t you weep
All your ki[Dm]sses they came s[Am]weet
I hate the sa[Dm]dness in your e[G]ye
An[D]gie, I still love you bab[C]y
Ev[D]erywhere I look I see your ey[C]es
Th[D]ere ain‚??t a woman that [C]comes close to you
[C]So come on [Asus]baby try to ri[G]se
Intro C
Angie‚?¶ Angie‚?¶ you can‚??t say you‚??re satisfied
Chord Legend
G Dm Am C Asus(?)
 
 E----3------1-----0----0-----0---------------------------------------
 B----3------3-----1----1-----3---------------------------------------
 G----0------2-----2----0-----2---------------------------------------
 D----0------0-----2----2-----0---------------------------------------
 A----2------x-----0----3-----x---------------------------------------
 E----3------x-----x----x-----x---------------------------------------


Important: The song above is NOT stored on the Chordie server. The original song is hosted at www.azchords.com. Chordie works as a search engine and provides on-the-fly formatting. Chordie does not index songs against artists'/composers' will. To remove this song please click here.

Text color:
Chord color:
Chord grids: 
Font size:    
Page size: 

Am Asus C D Dm G
Rate #1 of 1 versions

Jango Player

Login - add to songbook

SHARE PAGE  




You need to log in to post comments