Guitar Tabs, Chords and Lyrics
Major upgrade!! After one year development the new version of Chordie is now online! Please give feedback.


Myself  The Ataris

PART 1 PART 2
[F] [Bb] [C] [D] [Bb] [C] 
 
 e|------------------ e|------------------
 B|------------------ B|------------------
 G|-------3----5----- G|--7----3----5-----
 D|--3----3----5----- D|--7----3----5-----
 A|--3----1----3----- A|--5----1----3-----
 E|--1--------------- E|------------------

INTERLUDE:
 
 e|-----------------------
 B|-----------------------
 G|--10---15---14---12----
 D|--10---15---14---12----
 A|---8---13---12---10----
 E|-----------------------

STRUCTURE:
PART1 4x
PART2 4x
PART1 4x
PART2 4x
PART1 4x
INTERLUDE
PART2 4x
PART1 4x

Important: The song above is NOT stored on the Chordie server. The original song is hosted at www.azchords.com. Chordie works as a search engine and provides on-the-fly formatting. Chordie does not index songs against artists'/composers' will. To remove this song please click here.

Text color:
Chord color:
Chord grids: 
Font size:    
Page size: 

Bb C D F
Rate #1 of 1 versions

Jango Player

Login - add to songbook

SHARE PAGE  




You need to log in to post comments