Guitar Tabs, Chords and Lyrics
Update 25:10. 13:00. Site is back up running again. Songbooks are recovered. Woring on getting search back up..


Antorcha  Attaque 77

Intro: C
 
 ---------------------|
 -------5---5---------|
 ------5-5-5-5--------|
 -----5---5-----------|
 ---3-----------------|
 ---------------------|

[C]Yo no quiero pensar, que seria de l[F]a vida sin vos
[C]nadie te ve pasar, sos un ser perdido[F] en la multitud
[Am]y nadie imagina el bien que [G]causas a tu alrededor
y yo se[F] quien sos
y yo[C] quiero estar junto a v[G]os [A#] [F] para s[C]iempre
[C]Sos lo que hace el mundo girar,
sos el agua en el desierto de ho[F]y
[C]en la guardia de un hospital,
en lugares donde nunca hay
[F]nadie para ayudar
[Am]Sin pedir a cambio
nada mas que [G]el regocijo de sentir [F]que ayudas
[C]y yo quiero estar junto a v[G]os [A#] [F] p[C]ara siempre, [G]de tu lado
[Am]Sos la luz y es de tant[G]o dar luz
[F]sos el bien y es de tanto [G]hacer bien
[Am]con tu antorcha n[G]os iluminas,
[F]y tambien asi te iluminas vos[C]
Solo:
[C] [F]  
 
 e------(7)8-------------------------------|
 b-----------8-5-10--10-10-8-6--6-6-5-3-5--|
 g-(3)5------------------------------------|
 d-----------------------------------------|
 a-----------------------------------------|
 e-----------------------------------------|

[C] [F]  
 
 e------------------15-13-12-13-15--|
 b---------------8-8----------------|
 g-------5-5--7-9-9-----------------|
 d-5--5-7-7-------------------------|
 a----------------------------------|
 e----------------------------------|

[C] [F]  
 
 e--------------------------------------------------|
 b-13--13-15-13-15-17-20-17-20-17-20-17-15-17-15-13-|
 g--------------------------------------------------|
 d--------------------------------------------------|
 a--------------------------------------------------|
 e--------------------------------------------------|

[Am]Cuando el mundo caiga derrumbando mi razon [G]para luchar
[F]se que estaras
[C]Y yo quiero estar junto a v[G]os (O[A#]h!![F]!!) [C]para siempre, [F]de tu [G]lado
[C]Y yo quiero estar junto a v[G]os (O[A#]h!![F]!!) [C]para siempre, [F]de tu [G]lado
[C]Quiero estar junto a v[G]os ([A#]Oh![F]!!!) p[C]ara siempre, d[F]e tu l[G]ado
[C]Yo quiero estar junto a [G]vos [A#](Oh[F]!!!!) [C]para siempre, [F]de tu [G]lado
Quiero estar junto a vos (Oh!!!!) para siempre....

Important: The song above is NOT stored on the Chordie server. The original song is hosted at www.azchords.com. Chordie works as a search engine and provides on-the-fly formatting. Chordie does not index songs against artists'/composers' will. To remove this song please click here.

Text color:
Chord color:
Chord grids: 
Font size:    
Page size: 

A# Am C F G
Rate #2 of 3 versions

Jango Player

Login - add to songbook

SHARE PAGE  




You need to log in to post comments