Guitar Tabs, Chords and Lyrics
Update 25:10. 13:00. Site is back up running again. Songbooks are recovered. Woring on getting search back up..


�?ngel  Attaque 77

Mientras dormía[D]s esperando el día[A], caí encandilad[Bm]o[F#m]
[Bm]es como un mil[F#m]agro viendo tus [A]ala[D-A]s, te quedan t[G]an bien.[Gm] [D]
[D]Algunas veces he s[A]ido cobarde y tan cr[Bm]uel, te debo t[F#m]anto,
[Bm]vos y todos mis c[F#m]ambios, quiero acost[A]arme[D-A]
cerrar los [G]ojo[Gm]s y olvid[D]ar [A] [G] [Gm] y olvid[D]ar[A] [G] [Gm]
(A G-A)x2
[Gm] Soñaba que[D] me despertaba a tu [A]lado
[Gm] los perros corr[D]ían por todos [A]lados
no se por[F#] qué todo [Bm]se vió tan real
[F#] hasta sent[Bm]ía el olor natu[E]ral de tu [A]piel.
Y[D] en la mañana a[A]penas un rayo de [Bm]sol, cogimos un [F#m]rato
[Bm]y en tus enc[F#m]antos pude acab[A]arte,[D-A]
cerrar los oj[G]os[Gm] y olvid[D]ar[A], [G] [Gm] y so[D]a[A]r.[G] [Gm]
Punteo sobre: D A G Gm
fig 1
 
 e ------------------------------------------|
 B ------------------------------------------|
 G -2-2--2-4-2---2-2--2-4-2------------------|
 D ------------4------------4-4/5--5-4-------|
 A ------------------------------------5-----|
 E ------------------------------------------|

fig 2
 
 e ----------------------------------------------|
 B ----------------------------------------------|
 G -2-2--2-4-2---2-2--2-4-2----2/7--7-9-7-10-9-7-|
 D ------------4------------4--------------------|
 A ----------------------------------------------|
 E ----------------------------------------------|

fig 3 (esta se realiza 2 veces)
 
 e ----10----10-----9---9---7--7----------------------|
 B -12----12-----10--10---8--8----10/12-10------------|
 G ----------------------------------------12-11-9----|
 D ------------------------------------------------12-|
 A ---------------------------------------------------|
 E ---------------------------------------------------|

fig 4 varias veces(aca se tapa es sonido de la segunda cuerda con el dedo
en el traste 12 como se muestra en la figura y luego se toca la primer cuerda)
 
 e ---------10-----------------|
 B -10-12----------------------|
 G ----------------------------|
 D ----------------------------|
 A ----------------------------|
 E ----------------------------|

fig 5
 
 e --------------------------|
 B -----10/12-10-------------|
 G --------------12-11-9-----|
 D ---------------------12---|
 A --------------------------|
 E --------------------------|

fig 6 varias veces(se realiza el mismo efecto que el de la figura 4)
 
 e ---------------------------|
 B ---------------------------|
 G -------7-------------------|
 D ---7-9---------------------|
 A ---------------------------|
 E ---------------------------|
 G --7-9-7-10-9-7

termina D A G Gm

Important: The song above is NOT stored on the Chordie server. The original song is hosted at www.azchords.com. Chordie works as a search engine and provides on-the-fly formatting. Chordie does not index songs against artists'/composers' will. To remove this song please click here.

Text color:
Chord color:
Chord grids: 
Font size:    
Page size: 

A Bm D D-A E F# F#m G Gm
Rate #1 of 1 versions

Jango Player

Login - add to songbook

SHARE PAGE  




You need to log in to post comments