Guitar Tabs, Chords and Lyrics
Update 25:10. 13:00. Site is back up running again. Songbooks are recovered. Woring on getting search back up..


Windows  At the Gates

 

WINDOWS
As recorded by At The Gates
(From the 1992 Album THE RED IN THE SKY IS OURS)
Words and Music by At The Gates
Gtr I (B E A D F# B) - 'Cello effect; panned to right'
Gtr II (B E A D F# B) - 'Cello effect; panned to left'
Gtr III (B E A D F# B) - 'Cello effect; centred'
Gtr IV (B E A D F# B) - 'Distorted; panned to right'
Gtr V (B E A D F# B) - 'Distorted; panned to left'
Gtr VI (B E A D F# B) - 'Distorted; centred'
E=260
N.C. Fade in from silence until Gtrs IV, V and VI enter.
7/8
Gtr I
[B] [+E] [E] [E] [B] [+E] [E] [E] [B] [+E] [E] [E] [B] [+E] [E] [E]  
 
 |-----------------|-----------------|-----------------|------------------|
 |-----------------|-----------------|-----------------|------------------|
 |-----------------|-----------------|-----------------|------------------|
 |--9-----(9)--9---|--9-----(9)--9---|--9-----(9)--9---|--9-----(9)--9----|
 |-----------------|-----------------|-----------------|------------------|
 |-----------------|-----------------|-----------------|------------------|

|
| Gtr II
| H +E E E H +E E E H +E E E H +E E E
 
 |-----------------|-----------------|-----------------|------------------|
 |-----------------|-----------------|-----------------|------------------|
 |-11----(11)-11---|-11----(11)-11---|-12----(12)-12---|-11----(11)-11----|
 |-----------------|-----------------|-----------------|------------------|
 |-----------------|-----------------|-----------------|------------------|
 |-----------------|-----------------|-----------------|------------------|

|
| Gtr III
| H +E E E H +E E E H +E E E H +E E E
 
 |-----------------|-----------------|-----------------|------------------|
 |-----------------|-----------------|-----------------|------------------|
 |--7-----(7)--7---|-----------------|-----------------|--9-----(9)--9----|
 |-----------------|--9-----(9)--9---|-----------------|------------------|
 |-----------------|-----------------|--7-----(7)--7---|------------------|
 |-----------------|-----------------|-----------------|------------------|

7/8
[B] [+E] [E] [E] [B] [+E] [E] [E] [B] [+E] [E] [E] [B] [+E] [E] [E]  
 
 |-----------------|-----------------|--------------|--------------------|
 |-----------------|-----------------|--------------|--------------------|
 |-----------------|-----------------|--------------|--------------------|
 |--9-----(9)--9---|--9-----(9)--9---|-9----(9)-9---|--9-------(9)--9----|
 |-----------------|-----------------|--------------|--------------------|
 |-----------------|-----------------|--------------|--------------------|

|
| H +E E E H +E E E H +E E E Q Q. E E
 
 |-----------------|-----------------|--------------|--------------------|
 |-----------------|-----------------|--------------|--------------------|
 |-11----(11)-11---|-11----(11)-11---|--------------|-12--11-------11----|
 |-----------------|-----------------|-9----(9)-9---|--------------------|
 |-----------------|-----------------|--------------|--------------------|
 |-----------------|-----------------|--------------|--------------------|

|
| H +E E E H +E E E H +E E E H +E E E
 
 |-----------------|-----------------|--------------|--------------------|
 |-----------------|-----------------|--------------|--------------------|
 |--7-----(7)--7---|-----------------|--------------|--9-------(9)--9----|
 |-----------------|--9-----(9)--9---|--------------|--------------------|
 |-----------------|-----------------|-7----(7)-7---|--------------------|
 |-----------------|-----------------|--------------|--------------------|

7/8
[B] [+E] [E] [E] [B] [+E] [E] [E] [B] [+E] [E] [E] [B] [+E] [E] [E]  
 
 |-----------------|-----------------|-----------------|------------------|
 |-----------------|-----------------|-----------------|------------------|
 |-----------------|-----------------|-----------------|------------------|
 |--9-----(9)--9---|--9-----(9)--9---|--9-----(9)--9---|--9-----(9)--9----|
 |-----------------|-----------------|-----------------|------------------|
 |-----------------|-----------------|-----------------|------------------|

|
| H +E E E H +E E E H +E E E H +E E E
 
 |-----------------|-----------------|-----------------|------------------|
 |-----------------|-----------------|-----------------|------------------|
 |-11----(11)-11---|-11----(11)-11---|-12----(12)-12---|-11----(11)-11----|
 |-----------------|-----------------|-----------------|------------------|
 |-----------------|-----------------|-----------------|------------------|
 |-----------------|-----------------|-----------------|------------------|

|
| H +E E E H +E E E H +E E E H +E E E
 
 |-----------------|-----------------|-----------------|------------------|
 |-----------------|-----------------|-----------------|------------------|
 |--7-----(7)--7---|-----------------|-----------------|--9-----(9)--9----|
 |-----------------|--9-----(9)--9---|-----------------|------------------|
 |-----------------|-----------------|--7-----(7)--7---|------------------|
 |-----------------|-----------------|-----------------|------------------|

7/8
[B] [+E] [E] [E] [B] [+E] [E] [E]  
 
 |-----------------|--------------------|
 |-----------------|--------------------|
 |-----------------|--------------------|
 |--9-----(9)--9---|--9-----(9)--9------|
 |-----------------|--------------------|
 |-----------------|--------------------|

|
| H +E E E H +E E E
 
 |-----------------|--------------------|
 |-----------------|--------------------|
 |-11----(11)-11---|-11----(11)-11------|
 |-----------------|--------------------|
 |-----------------|--------------------|
 |-----------------|--------------------|

|
| H +E E E H +E E E
 
 |-----------------|--------------------|
 |-----------------|--------------------|
 |--7-----(7)--7---|--------------------|
 |-----------------|--9-----(9)--9------|
 |-----------------|--------------------|
 |-----------------|--------------------|

E=290
Gtr IV
H +E Q H +E Q H +E Q H +E Q
 
 |-------------|-------------------|----------------|----------------|
 |-------------|-------------------|----------------|----------------|
 |-------------|--9--------(9)--9--|----------------|----------------|
 |-------------|-------------------|-10----(10)-10--|--9-----(9)--9--|
 |-7----(7)-7--|-------------------|----------------|----------------|
 |-------------|-------------------|----------------|----------------|

|
| Gtr V
| H +E Q E E Q. Q H +E Q H +E Q
 
 |-------------|-------------------|----------------|----------------|
 |-------------|-------------------|----------------|----------------|
 |-------------|-12-9-11-------11--|-11----(11)-11--|-11----(11)-11--|
 |-9----(9)-9--|-------------------|----------------|----------------|
 |-------------|-------------------|----------------|----------------|
 |-------------|-------------------|----------------|----------------|

|
| Gtr VI
| H +E Q H +E Q H +E Q H +E Q
 
 |-------------|-------------------|----------------|----------------|
 |-------------|-------------------|----------------|----------------|
 |-------------|-------------------|----------------|----------------|
 |-------------|--9--------(9)--9--|-10----(10)-10--|--9-----(9)--9--|
 |-7----(7)-7--|-------------------|----------------|----------------|
 |-------------|-------------------|----------------|----------------|

H +E Q H +E Q H +E Q H +E Q
 
 |----------------|----------------|----------------|----------------|
 |----------------|----------------|----------------|----------------|
 |----------------|--9-----(9)--9--|--7-----(7)--7--|----------------|
 |----------------|----------------|----------------|--9-----(9)--9--|
 |--7-----(7)--7--|----------------|----------------|----------------|
 |----------------|----------------|----------------|----------------|

|
| H +E Q H +E Q H +E Q H +E Q
 
 |----------------|----------------|----------------|----------------|
 |----------------|----------------|----------------|----------------|
 |-12----(12)-12--|-11----(11)-11--|-11----(11)-11--|-11----(11)-11--|
 |----------------|----------------|----------------|----------------|
 |----------------|----------------|----------------|----------------|
 |----------------|----------------|----------------|----------------|

|
| H +E Q H +E Q H +E Q H +E Q
 
 |----------------|----------------|----------------|----------------|
 |----------------|----------------|----------------|----------------|
 |----------------|----------------|----------------|----------------|
 |----------------|--9-----(9)--9--|--9-----(9)--9--|--9-----(9)--9--|
 |--7-----(7)--7--|----------------|----------------|----------------|
 |----------------|----------------|----------------|----------------|

Q.=120
6/8
H +E Q H +E Q H. +H. +H. +H.
 
 |-------------|------------------|---------|----------|----------|--------||
 |-------------|------------------|---------|----------|----------|--------||
 |-------------|------------------|---------|----------|----------|--------||
 |-------------|------------------|---------|----------|----------|--------||
 |-7----(7)-7--|------------------|---------|----------|----------|--------||
 |-------------|-8--------(8)--8--|-7-------|-(7)------|-(7)------|-(7)----||

|
| H +E Q E E Q. Q H. +H. +H. +H.
 
 |-------------|------------------|---------|----------|----------|--------||
 |-------------|------------------|---------|----------|----------|--------||
 |-------------|------------------|---------|----------|----------|--------||
 |-------------|------------------|-7-------|-(7)------|-(7)------|-(7)----||
 |-7----(7)-7--|-7-9-10-------10--|---------|----------|----------|--------||
 |-------------|------------------|---------|----------|----------|--------||

|
| H +E Q E E Q. Q H. +H. +H. +H.
 
 |-------------|------------------|---------|----------|----------|--------||
 |-------------|------------------|---------|----------|----------|--------||
 |-------------|------------------|---------|----------|----------|--------||
 |-------------|------------------|-7-------|-(7)------|-(7)------|-(7)----||
 |-7----(7)-7--|------------------|---------|----------|----------|--------||
 |-------------|-8-5--7--------7--|---------|----------|----------|--------||

3/8
Gtr IV
TP TP TP TP TP
Q. Q. +H. Q. Q. E Q
 
 ||------------|----------|-----------|------|
 ||o-----------|----------|-----------|------|
 ||------------|----------|-----------|------|
 ||------------|----------|-----------|------|
 ||o------4----|-(4)------|-1---------|------|
 ||--3---------|----------|------2----|-1----|

|
| Gtr V
| TP TP TP TP TP
| Q. Q. +H. Q. Q. E Q
 
 ||------------|----------|-----------|------|
 ||o-----------|----------|-----------|------|
 ||------------|----------|-----------|------|
 ||------------|----------|-3---------|------|
 ||o------4----|-(4)------|------4----|------|
 ||--3---------|----------|-----------|-1----|

6/8
TP TP TP PM| ~~ TP
Q. Q. +H. E E E Q. H. 3x
 
 |-----------|----------|------------|--------||
 |-----------|----------|------------|-------o||
 |-----------|----------|-----5------|--------||
 |-----------|----------|-4-----4----|--------||
 |------4----|-(4)------|---3--------|-1-----o||
 |-3---------|----------|------------|--------||

|
| TP TP TP PM| ~~ TP
| Q. Q. +H. E E E Q. H. 3x
 
 |-----------|----------|------------|--------||
 |-----------|----------|------------|-------o||
 |-----------|----------|-----8------|--------||
 |-----------|----------|-7-----7----|--------||
 |------4----|-(4)------|---6--------|-4-----o||
 |-3---------|----------|------------|--------||

B5 D5 C#5 C5 B5 D5 C#5 C5 N.C.
Gtrs IV, V
 
 PM------| PM------| TP TP

Q. E E E Q. E E E Q. Q.
 
 ||------------------|-----------------|-----------||
 ||o-----------------|-----------------|----------o||
 ||------------------|-----------------|-----------||
 ||------------------|-----------------|-----------||
 ||o-2----5---4---3--|-2----5---4---3--|-2----3---o||
 ||--0----3---2---1--|-0----3---2---1--|-----------||

B5 D5 C#5 C5 B5 D5 C#5 C5 N.C.
Gtr IV
 
 PM------| PM------| TP TP

Q. E E E Q. E E E Q. Q.
 
 ||------------------|-----------------|------------|
 ||o-----------------|-----------------|------------|
 ||------------------|-----------------|------------|
 ||------------------|-----------------|------------|
 ||o-2----5---4---3--|--2----5---4---3-|--2----3----|
 ||--0----3---2---1--|--0----3---2---1-|------------|

|
| Gtr V
| TP TP TP
| H. +H. +H.
 
 ||------------------|-----------------|------------|
 ||o-----------------|-----------------|------------|
 ||------------------|-----------------|------------|
 ||--5---------------|-(5)-------------|-(5)--------|
 ||o-----------------|-----------------|------------|
 ||------------------|-----------------|------------|

B5 D5 C#5 C5 B5 D5 C#5 C5 N.C.
 
 PM------| PM------| TP TP TP TP

Q. E E E Q. E E E Q. Q. Q. Q.
 
 |-----------------|------------------|-------------||----------||
 |-----------------|------------------|------------o||----------||
 |-----------------|------------------|-------------||----------||
 |-----------------|------------------|-------------||-4----5---||
 |-2----5---4---3--|--2----5---4---3--|--2----3----o||----------||
 |-0----3---2---1--|--0----3---2---1--|-------------||----------||

|
| TP TP TP TP TP
| H. +H. +H. Q. Q.
 
 |-----------------|------------------|-------------||----------||
 |-----------------|------------------|------------o||----------||
 |-----------------|------------------|-------------||----------||
 |-4---------------|-(4)--------------|-(4)---------||-4----5---||
 |-----------------|------------------|------------o||----------||
 |-----------------|------------------|-------------||----------||

Gtr IV
TP TP TP TP TP TP TP TP TP TP
H. E E E Q. H. E E E Q.
 
 |----------|-----------------|-----------|-----------------|
 |----------|-----------------|-----------|-----------------|
 |----------|-----------12----|-----------|-----------11----|
 |----------|--10--9-10-------|-----------|--10--9-10-------|
 |--7-------|-----------------|---7-------|-----------------|
 |----------|-----------------|-----------|-----------------|

|
| Gtr V
| TP TP TP TP
| H. +H. +H. +H.
 
 |----------|-----------------|-----------|-----------------|
 |----------|-----------------|-----------|-----------------|
 |----------|-----------------|-----------|-----------------|
 |--7-------|--(7)------------|--(7)------|--(7)------------|
 |----------|-----------------|-----------|-----------------|
 |----------|-----------------|-----------|-----------------|

|
| Gtr VI
| TP TP TP TP
| H. +H. +H. +H.
 
 |----------|-----------------|-----------|-----------------|
 |----------|-----------------|-----------|-----------------|
 |----------|-----------------|-----------|-----------------|
 |-10-------|-(10)------------|-(10)------|-(10)------------|
 |----------|-----------------|-----------|-----------------|
 |----------|-----------------|-----------|-----------------|

TP TP TP TP TP TP TP TP TP TP
H. E E E Q. H. E E E Q.
 
 |---------|----------------|----------|----------------|
 |---------|----------------|----------|----------------|
 |---------|----------12----|----------|----------11----|
 |---------|-10--9-10-------|----------|-10--9-10-------|
 |-7-------|----------------|--7-------|----------------|
 |---------|----------------|----------|----------------|

|
| TP TP TP TP
| H. +H. +H. +H.
 
 |---------|----------------|----------|----------------|
 |---------|----------------|----------|----------------|
 |---------|----------------|----------|----------------|
 |-5-------|-(5)------------|-(5)------|-(5)------------|
 |---------|----------------|----------|----------------|
 |---------|----------------|----------|----------------|

|
| TP TP TP TP
| H. +H. +H. +H.
 
 |---------|----------------|----------|----------------|
 |---------|----------------|----------|----------------|
 |---------|----------------|----------|----------------|
 |-9-------|-(9)------------|-(9)------|-(9)------------|
 |---------|----------------|----------|----------------|
 |---------|----------------|----------|----------------|

TP TP TP TP TP TP TP TP TP TP
H. E E E Q. H. E E E Q.
 
 |---------|----------------|----------|----------------|
 |---------|----------------|----------|----------------|
 |---------|----------12----|----------|----------11----|
 |---------|-10--9-10-------|----------|-10--9-10-------|
 |-7-------|----------------|--7-------|----------------|
 |---------|----------------|----------|----------------|

|
| TP TP TP TP
| H. +H. +H. +H.
 
 |---------|----------------|----------|----------------|
 |---------|----------------|----------|----------------|
 |---------|----------------|----------|----------------|
 |-4-------|-(4)------------|-(4)------|-(4)------------|
 |---------|----------------|----------|----------------|
 |---------|----------------|----------|----------------|

|
| TP TP TP TP
| H. +H. +H. +H.
 
 |---------|----------------|----------|----------------|
 |---------|----------------|----------|----------------|
 |---------|----------------|----------|----------------|
 |-9-------|-(9)------------|-(9)------|-(9)------------|
 |---------|----------------|----------|----------------|
 |---------|----------------|----------|----------------|

TP TP TP TP TP TP TP
Q. Q. Q. Q. Q. Q. H.
 
 ||-------------|-------------|-------------|---------||
 ||o------------|-------------|-------------|--------o||
 ||-------12----|-------11----|-------12----|-11------||
 ||-------------|-------------|-------------|---------||
 ||o-7----------|--7----------|--7----------|--------o||
 ||-------------|-------------|-------------|---------||

|
| TP TP TP TP TP TP TP
| Q. Q. Q. Q. Q. Q. H.
 
 ||-------------|-------------|-------------|---------||
 ||o------------|-------------|-------------|-10-----o||
 ||-------------|-------------|-------12----|---------||
 ||--9----10----|--9-----7----|--9----------|---------||
 ||o------------|-------------|-------------|--------o||
 ||-------------|-------------|-------------|---------||

|
| TP TP TP TP
| H. +H. +H. H.
 
 ||-------------|-------------|-------------|---------||
 ||o------------|-------------|-------------|--------o||
 ||--9----------|-(9)---------|-(9)---------|--7------||
 ||-------------|-------------|-------------|---------||
 ||o------------|-------------|-------------|--------o||
 ||-------------|-------------|-------------|---------||

1. 2.
TP TP TP TP TP TP TP TP
Q. Q. Q. Q. Q. Q. H. Q. +Q.
 
 ||--------------|--------------|--------------|-----------||----------------||
 ||o-------------|--------------|--------------|----------o||----------------||
 ||--------15----|--------14----|--------15----|-14--------||-14----(14)\----||
 ||--------------|--------------|--------------|-----------||----------------||
 ||o-10----------|--10----------|--10----------|----------o||----------------||
 ||--------------|--------------|--------------|-----------||----------------||

|
| TP TP TP TP TP TP TP TP
| Q. Q. Q. Q. Q. Q. H. Q. +Q.
 
 ||--------------|--------------|--------------|-----------||----------------||
 ||o-------------|--------------|--------------|-13-------o||-13----(13)\----||
 ||--------------|--------------|--------15----|-----------||----------------||
 ||--12----13----|--12----10----|--12----------|-----------||----------------||
 ||o-------------|--------------|--------------|----------o||----------------||
 ||--------------|--------------|--------------|-----------||----------------||

|
| TP TP TP TP TP
| H. +H. +H. H. Q. +Q.
 
 ||--------------|--------------|--------------|-----------||----------------||
 ||o-------------|--------------|--------------|----------o||----------------||
 ||--12----------|-(12)---------|-(12)---------|-10--------||-10----(10)-----||
 ||--------------|--------------|--------------|-----------||----------------||
 ||o-------------|--------------|--------------|----------o||----------------||
 ||--------------|--------------|--------------|-----------||----------------||

Let ring for several beats *
Gtrs IV, V
 
 PM| PM| PM| PM----------------------------|

E E E E E E E E E E E E E E E E E E E E E E E E 4x
 
 ||--------------|-------------|-------------|--------------||
 ||o-------------|-------------|-------------|-------------o||
 ||--------------|-------------|-------------|--------------||
 ||--3-----3-----|-3-----3-----|-------------|--------------||
 ||o---2-1---2-1-|---2-1---2-1-|---2-1---2-1-|---2-1---2-1-o||
 ||--------------|-------------|-3-----3-----|-3-----3------||

Gtr V
 
 ~~ PM--| ~~ PM--| ~~ PM--| ~~

Q. E E E Q. E E E Q. E E E Q. Q E
 
 |------------|------------|------------|-----------|
 |------------|------------|------------|-----------|
 |------------|------------|------------|-----------|
 |------------|------------|------------|---------3-|
 |------4-3-2-|------4-3-2-|------4-3-2-|------3----|
 |-3----------|-3----------|-3----------|-3---------|

Gtrs IV, V
 
 PM--| ~~ PM--| ~~ PM--| ~~ PM--| ~~

Q. E E E Q. E E E Q. E E E Q. E E E Q. Q E
 
 |------------||-------------|------------|------------|------------||
 |------------||o------------|------------|------------|-----------o||
 |------------||-------------|------------|------------|------------||
 |------------||-------------|------------|------------|---------3--||
 |------4-3-2-||o------4-3-2-|------4-3-2-|------4-3-2-|------3----o||
 |------------||--3----------|-3----------|-3----------|-3----------||

1. 2.
7/8
 
 ~~ PM----| ~~ PM----| ~~ PM----| ~~ ~~

Q. E S S E Q. E S S E Q. E S S E Q. Q E Q. Q E E
 
 ||---------------|--------------|--------------|------------||-------------|
 ||o--------------|--------------|--------------|-----------o||-------------|
 ||---------------|--------------|--------------|------------||-------------|
 ||---------------|--------------|--------------|---------5--||---------5---|
 ||o--------------|--------------|--------------|------4----o||------4------|
 ||--3----3-3-3-3-|-3----3-3-3-3-|-3----3-3-3-3-|-3----------||-3-----------|

Q=205
[4/4] PM-| TP TP TP TP TP TP TP TP TP TP
Q Q H Q Q H Q Q H Q Q H
 
 |------------|------------|------------|------------|
 |------------|------------|------------|------------|
 |------------|------------|------------|------------|
 |-------5----|----5-------|-------5----|-------8----|
 |----4-------|-------4----|----4-------|----7-------|
 |-3----------|-3----------|-3----------|-6----------|

TP TP TP TP TP TP TP TP TP TP TP TP
Q Q H Q Q H Q Q H Q Q H
 
 |------------|------------|------------|------------|
 |------------|------------|------------|------------|
 |------------|------------|------------|------------|
 |-------5----|----5-------|-------5----|-------8----|
 |----4-------|-------4----|----4-------|----7-------|
 |-3----------|-3----------|-3----------|-6----------|

Q.=120
6/8
 
 ~~ PM----| ~~ PM----| ~~ PM----| ~~

Q. E S S E Q. E S S E Q. E S S E Q. Q E
 
 ||---------------|--------------|--------------|-------------||
 ||o--------------|--------------|--------------|------------o||
 ||---------------|--------------|--------------|-------------||
 ||---------------|--------------|--------------|---------5---||
 ||o--------------|--------------|--------------|------4-----o||
 ||--3----3-3-3-3-|-3----3-3-3-3-|-3----3-3-3-3-|-3-----------||

Gtr IV
TP TP TP TP TP TP TP TP TP TP
H. E E E Q. H. E E E Q.
 
 |----------|-----------------|-----------|-----------------|
 |----------|-----------------|-----------|-----------------|
 |----------|-----------12----|-----------|-----------11----|
 |----------|--10--9-10-------|-----------|--10--9-10-------|
 |--7-------|-----------------|---7-------|-----------------|
 |----------|-----------------|-----------|-----------------|

|
| Gtr V
| TP TP TP TP
| H. +H. +H. +H.
 
 |----------|-----------------|-----------|-----------------|
 |----------|-----------------|-----------|-----------------|
 |----------|-----------------|-----------|-----------------|
 |--7-------|--(7)------------|--(7)------|--(7)------------|
 |----------|-----------------|-----------|-----------------|
 |----------|-----------------|-----------|-----------------|

|
| Gtr VI
| TP TP TP TP
| H. +H. +H. +H.
 
 |----------|-----------------|-----------|-----------------|
 |----------|-----------------|-----------|-----------------|
 |----------|-----------------|-----------|-----------------|
 |-10-------|-(10)------------|-(10)------|-(10)------------|
 |----------|-----------------|-----------|-----------------|
 |----------|-----------------|-----------|-----------------|

TP TP TP TP TP TP TP TP TP TP
H. E E E Q. H. E E E Q.
 
 |---------|----------------|----------|----------------|
 |---------|----------------|----------|----------------|
 |---------|----------12----|----------|----------11----|
 |---------|-10--9-10-------|----------|-10--9-10-------|
 |-7-------|----------------|--7-------|----------------|
 |---------|----------------|----------|----------------|

|
| TP TP TP TP
| H. +H. +H. +H.
 
 |---------|----------------|----------|----------------|
 |---------|----------------|----------|----------------|
 |---------|----------------|----------|----------------|
 |-5-------|-(5)------------|-(5)------|-(5)------------|
 |---------|----------------|----------|----------------|
 |---------|----------------|----------|----------------|

|
| TP TP TP TP
| H. +H. +H. +H.
 
 |---------|----------------|----------|----------------|
 |---------|----------------|----------|----------------|
 |---------|----------------|----------|----------------|
 |-9-------|-(9)------------|-(9)------|-(9)------------|
 |---------|----------------|----------|----------------|
 |---------|----------------|----------|----------------|

TP TP TP TP TP TP TP TP TP TP
H. E E E Q. H. E E E Q.
 
 |---------|----------------|----------|----------------|
 |---------|----------------|----------|----------------|
 |---------|----------12----|----------|----------11----|
 |---------|-10--9-10-------|----------|-10--9-10-------|
 |-7-------|----------------|--7-------|----------------|
 |---------|----------------|----------|----------------|

|
| TP TP TP TP
| H. +H. +H. +H.
 
 |---------|----------------|----------|----------------|
 |---------|----------------|----------|----------------|
 |---------|----------------|----------|----------------|
 |-4-------|-(4)------------|-(4)------|-(4)------------|
 |---------|----------------|----------|----------------|
 |---------|----------------|----------|----------------|

|
| TP TP TP TP
| H. +H. +H. +H.
 
 |---------|----------------|----------|----------------|
 |---------|----------------|----------|----------------|
 |---------|----------------|----------|----------------|
 |-9-------|-(9)------------|-(9)------|-(9)------------|
 |---------|----------------|----------|----------------|
 |---------|----------------|----------|----------------|

TP TP TP TP TP TP TP
Q. Q. Q. Q. Q. Q. H.
 
 ||-------------|-------------|-------------|---------||
 ||o------------|-------------|-------------|--------o||
 ||-------12----|-------11----|-------12----|-11------||
 ||-------------|-------------|-------------|---------||
 ||o-7----------|--7----------|--7----------|--------o||
 ||-------------|-------------|-------------|---------||

|
| TP TP TP TP TP TP TP
| Q. Q. Q. Q. Q. Q. H.
 
 ||-------------|-------------|-------------|---------||
 ||o------------|-------------|-------------|-10-----o||
 ||-------------|-------------|-------12----|---------||
 ||--9----10----|--9-----7----|--9----------|---------||
 ||o------------|-------------|-------------|--------o||
 ||-------------|-------------|-------------|---------||

|
| TP TP TP TP
| H. +H. +H. H.
 
 ||-------------|-------------|-------------|---------||
 ||o------------|-------------|-------------|--------o||
 ||--9----------|-(9)---------|-(9)---------|--7------||
 ||-------------|-------------|-------------|---------||
 ||o------------|-------------|-------------|--------o||
 ||-------------|-------------|-------------|---------||

TP TP TP TP TP TP TP
Q. Q. Q. Q. Q. Q. H.
 
 ||--------------|--------------|--------------|---------||
 ||o-------------|--------------|--------------|--------o||
 ||--------15----|--------14----|--------15----|-14------||
 ||--------------|--------------|--------------|---------||
 ||o-10----------|--10----------|--10----------|--------o||
 ||--------------|--------------|--------------|---------||

|
| TP TP TP TP TP TP TP
| Q. Q. Q. Q. Q. Q. H.
 
 ||--------------|--------------|--------------|---------||
 ||o-------------|--------------|--------------|-13-----o||
 ||--------------|--------------|--------15----|---------||
 ||--12----13----|--12----10----|--12----------|---------||
 ||o-------------|--------------|--------------|--------o||
 ||--------------|--------------|--------------|---------||

|
| TP TP TP TP
| H. +H. +H. H.
 
 ||--------------|--------------|--------------|---------||
 ||o-------------|--------------|--------------|--------o||
 ||--12----------|-(12)---------|-(12)---------|-10------||
 ||--------------|--------------|--------------|---------||
 ||o-------------|--------------|--------------|--------o||
 ||--------------|--------------|--------------|---------||

TP TP TP TP TP TP TP TP
Q. Q. Q. Q. Q. Q. Q. Q.
 
 |------------|-------------|------------|-------------|
 |------------|-------------|------------|-------------|
 |-------9----|-------------|-------9----|-------------|
 |------------|--10----9----|------------|--10----9----|
 |--7---------|-------------|--7---------|-------------|
 |------------|-------------|------------|-------------|

|
| TP TP TP TP
| H. +H. H. +H.
 
 |------------|-------------|------------|-------------|
 |------------|-------------|------------|-------------|
 |-11---------|-(11)--------|-12---------|-(12)--------|
 |------------|-------------|------------|-------------|
 |------------|-------------|------------|-------------|
 |------------|-------------|------------|-------------|

|
| H. +H. +H. +H.
 
 |------------|-------------|------------|-------------|
 |------------|-------------|------------|-------------|
 |--9---------|--(9)--------|-(9)--------|--(9)--------|
 |------------|-------------|------------|-------------|
 |------------|-------------|------------|-------------|
 |------------|-------------|------------|-------------|

Gtr IV
TP TP TP TP TP TP TP
Q. Q. Q. Q. Q. Q. Q. Q.
 
 |------------|-------------|------------------|-------------|
 |------------|-------------|------------------|-------------|
 |-------9----|-------------|-------9----------|-------------|
 |------------|--10----9----|------------------|-10-----9\---|
 |--7---------|-------------|--7---------------|-------------|
 |------------|-------------|------------------|-------------|

|
| Gtr V
| TP TP TP TP TP
| H. +H. H +E E Q. Q.
 
 |------------|-------------|------------------|-------------|
 |------------|-------------|------------------|-------------|
 |-11---------|-(11)--------|-12-------(12)-13-|-------------|
 |------------|-------------|------------------|-12\---------|
 |------------|-------------|------------------|-------------|
 |------------|-------------|------------------|-------12\---|

Gtrs IV, V
 
 PM| PM| PM| PM----------------------------|

E E E E E E E E E E E E E E E E E E E E E E E E 4x
 
 ||--------------|-------------|-------------|--------------||
 ||o-------------|-------------|-------------|-------------o||
 ||--------------|-------------|-------------|--------------||
 ||--3-----3-----|-3-----3-----|-------------|--------------||
 ||o---2-1---2-1-|---2-1---2-1-|---2-1---2-1-|---2-1---2-1-o||
 ||--------------|-------------|-3-----3-----|-3-----3------||

B5 D5 C#5 C5 B5 D5 C#5 C5 N.C.
Gtr IV
 
 PM------| PM------| TP TP TP TP

Q. E E E Q. E E E Q. Q. Q. Q. 3x
 
 ||------------------|-----------------|-----------|------------||
 ||o-----------------|-----------------|-----------|-----------o||
 ||------------------|-----------------|-----------|------------||
 ||------------------|-----------------|-4----5----|-4----5-----||
 ||o-2----5---4---3--|-2----5---4---3--|-----------|-----------o||
 ||--0----3---2---1--|-0----3---2---1--|-----------|------------||

|
| Gtr V
 
 | PM------| PM------| TP TP TP TP

| Q. E E E Q. E E E Q. Q. Q. Q. 3x
 
 ||------------------|-----------------|-----------|------------||
 ||o-----------------|-----------------|-----------|-----------o||
 ||------------------|-----------------|-----------|------------||
 ||------------------|-----------------|-----------|------------||
 ||o-2----5---4---3--|-2----5---4---3--|-2----3----|-2----3----o||
 ||--0----3---2---1--|-0----3---2---1--|-----------|------------||

E=290
7/8
Gtr IV
H +E Q H +E Q H.. +H..
 
 |-------------|-------------------|----------|---------*|
 |-------------|-------------------|----------|---------*|
 |-------------|-------------------|----------|---------*|
 |-------------|-------------------|----------|---------*|
 |-7----(7)-7--|-------------------|----------|---------*|
 |-------------|--8--------(8)--8--|-7--------|-(7)-----*|

|
| Gtr V
| H +E Q E E Q. Q H.. +H..
 
 |-------------|-------------------|----------|---------*|
 |-------------|-------------------|----------|---------*|
 |-------------|-------------------|----------|---------*|
 |-------------|-------------------|-7--------|-(7)-----*|
 |-7----(7)-7--|--7-9-10-------10--|----------|---------*|
 |-------------|-------------------|----------|---------*|

|
| Gtr VI
| H +E Q E E Q. Q H.. +H..
 
 |-------------|-------------------|----------|---------*|
 |-------------|-------------------|----------|---------*|
 |-9----(9)-9--|-------------------|----------|---------*|
 |-------------|-10-7--9--------9--|-7--------|-(7)-----*|
 |-------------|-------------------|----------|---------*|
 |-------------|-------------------|----------|---------*|

Duration Legend
 
 ---------------
 W - whole; H - half; Q - quarter; E - 8th; S - 16th; T - 32nd; X - 64th; a - acciaccatura

+ - note tied to previous; . - note dotted; .. - note double dotted
Uncapitalized letters represent notes that are staccato (1/2 duration)
Irregular groupings are notated above the duration line
Duration letters will always appear directly above the note/fret number it represents the
duration for. Duration letters with no fret number below them represent rests. Multi-
bar rests are notated in the form Wxn, where n is the number of bars to rest for. Low
melody durations appear below the staff
Tablature Legend
 
 ----------------

h - hammer-on
p - pull-off
b - bend
pb - pre-bend
r - bend release (if no number after the r, then release immediately)
/\ - slide into or out of (from/to "nowhere")
s - legato slide
S - shift slide
<n> - natural harmonic
(n) - artificial harmonic
n(n) - tapped harmonic
~ - vibrato
tr - trill
T - tap
TP - trem. picking
PM - palm muting
\n/ - tremolo bar dip; n = amount to dip
\n - tremolo bar down
n/ - tremolo bar up
/n\ - tremolo bar inverted dip
= - hold bend; also acts as connecting device for hammers/pulls
<> - volume swell (louder/softer)
x - on rhythm slash represents muted slash
o - on rhythm slash represents single note slash
Misc Legend
 
 -----------

| - bar
|| - double bar
||o - repeat start
o|| - repeat end
*| - double bar (ending)
: - bar (freetime)
$ - Segno
& - Coda
Tempo markers - <E/E./Q/Q./H/H.> = BPM(8/16=s8/s16), where s8 = swing 8ths, s16 = swing 16ths
***************************************************************************************
***************************************************************************************

Important: The song above is NOT stored on the Chordie server. The original song is hosted at www.azchords.com. Chordie works as a search engine and provides on-the-fly formatting. Chordie does not index songs against artists'/composers' will. To remove this song please click here.

Text color:
Chord color:
Chord grids: 
Font size:    
Page size: 

B E
Rate #2 of 2 versions

Jango Player

Login - add to songbook

SHARE PAGE  




You need to log in to post comments