Guitar Tabs, Chords and Lyrics
Major upgrade!! After one year development the new version of Chordie is now online! Please give feedback.


Your Time Has Come  Audioslave

Band: Audioslave
Standard tunning (EADGBe)
Maybe it's not 100% right but it sounds quite good, my english is not so good but i
did my best, this song is very cool, es muy excelente
Intro:
 
 e|---------------------------------------------------------------------|
 B|------------------------------------------------8--------------------|
 G|-9-7-9-7-9-7------------------------------7-7-9---9-7-7--------------|
 D|--------------9-7-9-7-9-7-9-7--5---5--7-9----------------9-7-5-------|
 A|---------------------------------7-----------------------------7----5|
 E|---------------------------------------------------------------------|

Main riff: verse x8:
 
 e|--------------------------------------------|
 B|--------------------------------------------|
 G|--------------------------------------------|
 D|-2-0-----------2-0--------------------------| before he strarts singing
 A|-----2-0-----------2-0----------------------| repeat main riff x4 times
 E|---------3-0-----------3-0/5----------------| and the verse x8

Chorus:
[G] [D] [A] [E]  
 
 e|------------------------------------------------|
 B|------------------------------------------------|
 G|-12------------7--------------------------------|
 D|-12------------7---------------7------------9---| strum these as many
 A|-10------------5---------------7------------9---| times as needed,
 E|-------------------------------5------------7---| listen to the song.

I've been.. ..sideways.. I've stared.. ..sun.
I don't know ..dying.. ..long before ..has..
 
 e|------------------------------------------------------------------|
 B|------------------------------------------------------------------|
 G|------------------------------------------------------------------|
 D|-2-0-----------2-0-----------------2-0-----------2-0--------------|
 A|-----2-0-----------2-0------------------2-0-----------2-0---------|
 E|---------3-0-----------3-0/5-----------------3-0-----------3-0/5--|

..come, your time has come..
then verse (main riff) x8
Chorus:
G x4 D x4 A x3 E x4
 
 e|------------------------------------------------|
 B|------------------------------------------------|
 G|-12------------7--------------------------------|
 D|-12------------7---------------7------------9---|
 A|-10------------5---------------7------------9---|
 E|-------------------------------5------------7---| 

I've been.. ..sideways.. I've stared.. ..sun.
I don't know ..dying.. ..long before ..come.. (slide E to G when he
Yeah,I've ..sideways.. .. stared.. ..sun.. says "yeah..I've
I don't ..dying.. ..long before ...has.. been" and
Also when he sings
"sun, I don't
know why..")
 
 e|------------------------------------------------------------------|
 B|------------------------------------------------------------------|
 G|------------------------------------------------------------------|
 D|-2-0-----------2-0-----------------2-0-----------2-0--------------|
 A|-----2-0-----------2-0------------------2-0-----------2-0---------|
 E|---------3-0-----------3-0/5-----------------3-0-----------3-0/5--|

..come, your time has come..
solo: you'll have to improvise it, i don't have any pedals or alguna manera de
hacer esos efectos, but it sounds like a nintendo song(?), from a car race
then when the solo ends
 
 e|-------------------------------------------------------------|
 B|-------------------------------------------------------------|
 G|-------------------------------------------------------------|
 D|-5b/2-0---------2-0----------2-0---------2-0-----------------|
 A|--------2-0--------2-0-----------2-0---------2-0-------------|
 E|------------3-0--------3-0/5---------3-0---------3-0/5-------|
 e|------------------------------------------------------|
 B|------------------------------------------------------|
 G|------------------------------------------------------|
 D|-2-0---------2-0----------2-0---------2-0-------------|
 A|-----2-0---------2-0-----------2-0------- -2-0--------|
 E|----------3-0--------3-0/5---------3-0---------3-0/5--|

[E] [Gm] [D] [A] [A] [G]  
 
 e|-------------------------------------------|
 B|-------------------------------------------|
 G|-9-------------------7---------------------|
 D|-9----------5--------7---7--7-5------------|
 A|-7----------5--------5---7--7-5------------|
 E|------------3------------5--5-3------------|

I've seen ..names....stone
Most of. ..grave.. I was born
[E] [Gm] [D] [A] [A] [G]  
 
 e|-------------------------------------------|
 B|-------------------------------------------|
 G|-9-9----------7--------7-7-----------------|
 D|-9---9------5---5------7---7--7--7-5-------|
 A|-7----------5----------5------7--7-5-------|
 E|------------3-----------------5--5-3-------|

All of ..sisters ..behind..
[E] [Gm] [D] [A] [A] [A] [G]  
 
 e|-----------------------------------------------|
 B|-----------------------------------------------|
 G|-9--9----------7-------7---7-------------------|
 D|-9--9-------5--5-------7---7-----7-7-7-5-------|
 A|-7----------5----------5---5-----7-7-7-5-------|
 E|------------3--------------------5-5-5-3-------|

Most of ..friends ..alive.. doing time
Chorus:
[G] [D] [A] [E]  
 
 e|------------------------------------------------|
 B|------------------------------------------------|
 G|-12------------7--------------------------------|
 D|-12------------7---------------7------------9---|
 A|-10------------5---------------7------------9---|
 E|-------------------------------5------------7---| 

I've been.. ..sideways.. I've stared.. ..sun.
I don't know ..dying.. ..long before ..has..
[G] [D] [A] [E]  
 
 e|-----------------12sl15--------------------------------|
 B|-------------------------------------------------------|
 G|-12------------7--------12---------------------12sl16--|
 D|-12------------7---------------7------------9----------|
 A|-10------------5---------------7------------9----------|
 E|-------------------------------5------------7----------| 

Yeah,I've ..sideways.. .. stared.. ..sun..
I don't ..dying.. ..long before ...has..
 
 e|------------------------------------------------------------------|
 B|------------------------------------------------------------------|
 G|------------------------------------------------------------------|
 D|-2-0-----------2-0-----------------2-0-----------2-0--------------|
 A|-----2-0-----------2-0------------------2-0-----------2-0---------|
 E|---------3-0-----------3-0/5-----------------3-0-----------3-0/5--|

..come, long before your time has come.. long before
 
 e|------------------------------------------------------------------|
 B|------------------------------------------------------------------|
 G|------------------------------------------------------------------|
 D|-2-0-----------2-0-----------------2-0-----------2-0--------------|
 A|-----2-0-----------2-0------------------2-0-----------2-0---------|
 E|---------3-0-----------3-0/5-----------------3-0-----------3-0/5--|

Your time has come
End on
[D]  
 
 e|------|
 B|------| 

G|-7----|
D|-7----|
A|-5----|
 
 E|------| 

Bienaventurados los que han podido y pudieron ver a Audioslave en vivo y quienes los podrán ver
Hope you like it.

Important: The song above is NOT stored on the Chordie server. The original song is hosted at www.azchords.com. Chordie works as a search engine and provides on-the-fly formatting. Chordie does not index songs against artists'/composers' will. To remove this song please click here.

Text color:
Chord color:
Chord grids: 
Font size:    
Page size: 

A D E G Gm
Rate #1 of 2 versions

Login - add to songbook

SHARE PAGE  




You need to log in to post comments