Guitar Tabs, Chords and Lyrics
Update 25:10. 13:00. Site is back up running again. Songbooks are recovered. Woring on getting search back up..


Heartbeat and Sails  Augie March

Badd4 E/G# E5/A# F#7 Abm7 Emaj7/Ab F#7* F#7+ F#7/Ab
 
 |-0??----0----0-----0??--2----0--------0----0----0------|
 |-4??----0----0-----2??--0----4--------7----5----7------|
 |-4??----1----3---------1------------------------------|
 |------------------4--------6--------4----4----8------|
 |-----------------------------------------------------|
 |-----------------------------------------------------|

Intro
[Badd4] [E/G#] [E5/A#]  
 
 |-------0--------0--------0--------0--------0--------0-|
 |----4--------4--------4--------4--------0--------0----|
 |-4--------4--------4--------4--------1--------3-------|
 |------------------------------------------------------|
 |------------------------------------------------------|
 |------------------------------------------------------|

Verse 1
[Badd4] [E/G#] [E5/A#] [Badd4]  
 
 |-------0--------0--------0--------0--------0--------0--------0--------0-|
 |----4--------4--------4--------4--------0--------0--------4--------4----|
 |-4--------4--------4--------4--------1--------3--------4--------4-------|
 |------------------------------------------------------------------------|
 |------------------------------------------------------------------------|
 |------------------------------------------------------------------------|

Scoop my brains let my heart..... thousand million lots.. in the
[Badd4] [E/G#] [E5/A#]  
 
 |-------0--------0--------0--------0--------0--------0--------0--------0-|
 |----4--------4--------4--------4--------0--------0--------0--------0----|
 |-4--------4--------4--------4--------1--------1--------3--------3-------|
 |------------------------------------------------------------------------|
 |------------------------------------------------------------------------|
 |------------------------------------------------------------------------|

Dumb city dawn I am senseless & ... sun as the blackbirds & the toppy...
[Badd4] [F#7]  
 
 |-------0--------0--------0--------0--|
 |----4--------4--------2--------2-----|
 |-4--------4--------------------------|
 |-------------------4--------4--------|
 |-------------------------------------|
 |-------------------------------------|

knots in..
Chorus 1
[Abm7] [E5/A#] [Badd4] [Emaj7/G#]  
 
 |-------2--------2--------0--------0--------0--------0--------0--------0-|
 |----0--------0--------0--------0--------4--------4--------4--------4----|
 |-1--------1--------3--------3--------4--------4-------------------------|
 |-------------------------------------------------------6--------6-------|
 |------------------------------------------------------------------------|
 |------------------------------------------------------------------------|

Biting down on.. great foam world what is the looming thing? Not
[Abm7] [E5/A#] [E/G#] [E5/A#]  
 
 |-------2--------2--------0--------0--------0--------0--------0--------0-|
 |----0--------0--------0--------0--------0--------0--------0--------0----|
 |-1--------1--------3--------3--------1--------1--------3--------3-------|
 |------------------------------------------------------------------------|
 |------------------------------------------------------------------------|
 |------------------------------------------------------------------------|

Money, not.... happiness, but this which makes me.
Badd4 F#7* F#7+
 
 |-------0--------0--------0--------0-|
 |----4--------4--------7--------5----|
 |-4--------4-------------------------|
 |-------------------4--------4-------|
 |------------------------------------|
 |------------------------------------|

Sing
Verse 2
[Badd4] [E/G#] [E5/A#] [Badd4]  
 
 |-------0--------0--------0--------0--------0--------0--------0--------0-|
 |----4--------4--------4--------4--------0--------0--------4--------4----|
 |-4--------4--------4--------4--------1--------3--------4--------4-------|
 |------------------------------------------------------------------------|
 |------------------------------------------------------------------------|
 |------------------------------------------------------------------------|

Scoop my brains let my heart..... thousand million lots.. feel the
[Badd4] [E/G#] [E5/A#]  
 
 |-------0--------0--------0--------0--------0--------0--------0--------0-|
 |----4--------4--------4--------4--------0--------0--------0--------0----|
 |-4--------4--------4--------4--------1--------1--------3--------3-------|
 |------------------------------------------------------------------------|
 |------------------------------------------------------------------------|
 |------------------------------------------------------------------------|

Subterranean movement a fraction & deep under ocean the celibate
[Badd4] [F#7]  
 
 |-------0--------0--------0--------0-|
 |----4--------4--------2--------2----|
 |-4--------4-------------------------|
 |-------------------4--------4-------|
 |------------------------------------|
 |------------------------------------|

rocks has it
Chorus 2
[Abm7] [E5/A#] [Badd4] [Emaj7/G#]  
 
 |-------2--------2--------0--------0--------0--------0--------0--------0-|
 |----0--------0--------0--------0--------4--------4--------4--------4----|
 |-1--------1--------3--------3--------4--------4-------------------------|
 |-------------------------------------------------------6--------6-------|
 |------------------------------------------------------------------------|
 |------------------------------------------------------------------------|

Borne me down? Run me.... if I give it a name.. contract it too? more
[Abm7] [E5/A#] [E/G#] [E5/A#]  
 
 |-------2--------2--------0--------0--------0--------0--------0--------0-|
 |----0--------0--------0--------0--------0--------0--------0--------0----|
 |-1--------1--------3--------3--------1--------1--------3--------3-------|
 |------------------------------------------------------------------------|
 |------------------------------------------------------------------------|
 |------------------------------------------------------------------------|

Likely this..... growing in me like I have grown in
Bridge
Badd4 F#7* Badd4 F#7*
 
 |-------0--------0--------0--------0--------0--------0--------0--------0-|
 |----4--------4--------7--------5--------4--------4--------7--------5----|
 |-4--------4--------------------------4--------4-------------------------|
 |-------------------4--------4--------------------------4--------4-------|
 |------------------------------------------------------------------------|
 |------------------------------------------------------------------------|

You
Badd4 F#7* Badd4 Emaj7/G#
 
 |-------0--------0--------0--------0--------0--------0--------0--------0-|
 |----4--------4--------7--------5--------4--------4--------4--------4----|
 |-4--------4--------------------------4--------4-------------------------|
 |-------------------4--------4--------------------------6--------6-------|
 |------------------------------------------------------------------------|
 |------------------------------------------------------------------------|

[F#7] [Emaj7/G#] [F#7] [Emaj7/G#]  
 
 |-------0--------0--------0--------0--------0--------0--------0--------0-|
 |----2--------2--------4--------4--------2--------2--------4--------4----|
 |------------------------------------------------------------------------|
 |-4--------4--------6--------6--------4--------4--------6--------6-------|
 |------------------------------------------------------------------------|
 |------------------------------------------------------------------------|

[F#7] [Emaj7/G#] [F#7/G#]  
 
 |-------0--------0--------0--------0--------0--------0-|
 |----2--------2--------4--------4--------7--------7----|
 |------------------------------------------------------|
 |-4--------4--------6--------6--------8--------8-------|
 |------------------------------------------------------|
 |------------------------------------------------------|

Verse 3
[Badd4] [E/G#] [E5/A#] [Badd4]  
 
 |-------0--------0--------0--------0--------0--------0--------0--------0-|
 |----4--------4--------4--------4--------0--------0--------4--------4----|
 |-4--------4--------4--------4--------1--------3--------4--------4-------|
 |------------------------------------------------------------------------|
 |------------------------------------------------------------------------|
 |------------------------------------------------------------------------|

Scoop my brains let my heart..... thousand million lots.. in the
[Badd4] [E/G#] [E5/A#]  
 
 |-------0--------0--------0--------0--------0--------0--------0--------0-|
 |----4--------4--------4--------4--------0--------0--------0--------0----|
 |-4--------4--------4--------4--------1--------1--------3--------3-------|
 |------------------------------------------------------------------------|
 |------------------------------------------------------------------------|
 |------------------------------------------------------------------------|

Dumb city dawn we dispense with... beasts that we....night grown lean on
[Badd4] [F#7]  
 
 |-------0--------0--------0--------0-|
 |----4--------4--------2--------2----|
 |-4--------4-------------------------|
 |-------------------4--------4-------|
 |------------------------------------|
 |------------------------------------|

love
Chorus 3/Outro
[Abm7] [E5/A#] [Badd4] [Emaj7/G#]  
 
 |-------2--------2--------0--------0--------0--------0--------0--------0-|
 |----0--------0--------0--------0--------4--------4--------4--------4----|
 |-1--------1--------3--------3--------4--------4-------------------------|
 |-------------------------------------------------------6--------6-------|
 |------------------------------------------------------------------------|
 |------------------------------------------------------------------------|

love which.. and callous and..... upon the birth.. morbid bloom is a
[Abm7] [E5/A#] [Abm7] [E5/A#] [Badd4]  
 
 |-------2--------2--------0--------0--------2--------0--------0--------0-|
 |----0--------0--------0--------0--------0--------0--------4--------2----|
 |-1--------1--------3--------3--------1--------3--------4--------4-------|
 |------------------------------------------------------------------------|
 |------------------------------------------------------------------------|
 |------------------------------------------------------------------------|

child's sense of impending doom... womb that is ambushed, in a
[E5/A#] [Badd4] [Abm7] [E5/A#]  
 
 |-------0--------0--------0--------0--------2--------2--------0--------0-|
 |----0--------0--------4--------2--------0--------0--------0--------0----|
 |-1--------3--------4--------4--------1--------1--------3--------3-------|
 |------------------------------------------------------------------------|
 |------------------------------------------------------------------------|
 |------------------------------------------------------------------------|

womb that is ambushed, in biting down on... great foam world
[Badd4] [Emaj7/G#] [Abm7] [E5/A#]  
 
 |-------0--------0--------0--------0--------2--------2--------0--------0-|
 |----4--------4--------4--------4--------0--------0--------0--------0----|
 |-4--------4--------------------------1--------1--------3--------3-------|
 |-------------------6--------6-------------------------------------------|
 |------------------------------------------------------------------------|
 |------------------------------------------------------------------------|

What is a looming thing? not money not flesh.. happiness, but
[Abm7] [E5/A#] [Badd4] [F#7]  
 
 |-------2--------2--------0--------0--------0--------0--------0--------0-|
 |----0--------0--------0--------0--------4--------4--------2--------2----|
 |-1--------1--------3--------3--------4--------4-------------------------|
 |-------------------------------------------------------4--------4-------|
 |------------------------------------------------------------------------|
 |------------------------------------------------------------------------|

This, which makes me sing not
[Abm7] [E5/A#] [E/G#] [B]  
 
 |-------2--------2--------0--------0--------0--------0--------0-2-|
 |----0--------0--------0--------0--------0--------0--------0----4-|
 |-1--------1--------3--------3--------1--------1--------3-------4-|
 |---------------------------------------------------------------4-|
 |---------------------------------------------------------------2-|
 |-----------------------------------------------------------------|

Money not flesh.. happiness but this which makes me sing

Important: The song above is NOT stored on the Chordie server. The original song is hosted at www.azchords.com. Chordie works as a search engine and provides on-the-fly formatting. Chordie does not index songs against artists'/composers' will. To remove this song please click here.

Text color:
Chord color:
Chord grids: 
Font size:    
Page size: 

Abm7 B Badd4 E/G# Emaj7/G# F#7 F#7/G#
Rate #1 of 1 versions

Login - add to songbook

SHARE PAGE  




You need to log in to post comments