Guitar Tabs, Chords and Lyrics
Update 25:10. 13:00. Site is back up running again. Songbooks are recovered. Woring on getting search back up..


Maroondah Reservoir  Augie March

Chords
[F#m11] [E] [A] [D] [F] [D#m] [G] [F#m]  
 
 |-0??----0??-0-??2??-1--4??--3??-2--|
 |-0??----0??-2-??3--1--5??--3??-2--|
 |-1??----1??-2-??2??-2--6??--4--3--|
 |-2??----2??-2-??0??-3--6??--5--4--|
 |-0??----2??-0-??-??-3??-4??--5--4--|
 |-2??----0??---??-??-1---??--3--2--|

Verse 1
To [F#m11]be,
A [E]bee, a moth.
[F#m11]Four wings spread for the soft last touch[E]
Of glory [A]sun,
Remembering blood [E]plums and lips and [A]lemons -
One hundred different [E]suns
In a hundred different [D]heavens.
[F]Spied from a row[A]boat -
Chorus
[D#m]Stroke, [G]nought is [G#m]spoken,
Be[A]fore you [D#m]know it, the [G]spell is [E]broken,
[D]You might wonder [E]where you are,
[A]Floating [D#m]on the [G]reser[F#m11]voir.
Verse 2
Oh I have [E]counted the notes
We [F#m11]landed here not many years ago
And it was not a pretty [E]song that we com[A]posed:
La, la, la, the [E]early bird he knows,
You hang from the [A]cherry bough
When you're lichen [D]yourself, and [F]leave -
Chorus
The [A]cold cold [D#m]scent of [G]stone and [F#m]mulch,
[A]Great [D#m]stone wall to [G]stave the r[E]ush,
To [D]think that peace might [E]be too much,
[A]Waiting [D#m]for that [C]gian[B]t
Interlude
[A5] [D#5] [G5] [F5] [F#5] [G5] [Ab5] [A5] [D#5] [G5] [F5] [F#] [G5] [Ab5]  
 
 e|------------------------------------------------------|
 B|------------------------------------------------------|
 G|------6-6-----------------------6-6-------------------|
 D|-7-7--6-6--5-5--3-4-5-6-7-7-----6-6--5-5--3-4-5-6-----|
 A|-7-7--4-4--5-5--3-4-5-6-7-7-----4-4--5-5--3-4-5-6-----|
 E|-5-5-------3-3--1-2-3-4-5-5----------3-3--1-2-3-4-----| 

touch.
[D] [Dm] [A5] [D#5] [G5] [E]  
 
 e|-5-5-5-5-5-5-5-5-5-5-5-5-5-5-5-5-----------------------|
 B|-7-7-7-7-7-7-7-7-6-6-6-6-6-6-6-6-----------------------|
 G|-7-7-7-7-7-7-7-7-7-7-7-7-7-7-7-7-------6-6-------1-----|
 D|-7-7-7-7-7-7-7-7-7-7-7-7-7-7-7-7--7-5--6-6--5-5--2-----|
 A|-5-5-5-5-5-5-5-5-5-5-5-5-5-5-5-5--7-7--4-4--5-5--2-----|
 E|----------------------------------5-5-------3-3--0-----| 

Verse 3
The [F#m11]lake... the [E]fir-fringed lake -
[F#m11]Placid and ample, birded, breezed and dappled
Through the [E]mountain break,
Through the mountain [A]break,
A mom[E]ent take, a mome[A]nt, a mom[D]ent..[F].
Bridge
[A]You might wonder where you are,
[D#m]Perched up on the reservoir,
[G]Adolf in the white hotel,
[A]All this time we've been in hell,
[A]You might [D#m]wonder [G]where you [F#m]are,
[A]Perched a[D#m]bove the [G]reser[F#m]voir,
[D]Luis of the [E]lake retire,
Outro
Be[A]fore they [D#m]set the [D]lake on [A]fire
Be[A]fore they [E]set the [D]lake on [A]fire
Be[A]fore they [E]set the [C]lake [B]on [F#m11]fire
F#m E (repeat to fade)
The End

Important: The song above is NOT stored on the Chordie server. The original song is hosted at www.azchords.com. Chordie works as a search engine and provides on-the-fly formatting. Chordie does not index songs against artists'/composers' will. To remove this song please click here.

Text color:
Chord color:
Chord grids: 
Font size:    
Page size: 

A A5 Ab5 B C D D#5 D#m Dm E F F# F#5 F#m F#m11 F5 G G#m G5
Rate #1 of 1 versions

Login - add to songbook

SHARE PAGE  



You need to log in to post comments