Guitar Tabs, Chords and Lyrics
Server problems seems to be fixed. Chordie has been experiencing problems with songs disappearing. These issues now seems to be fixed, but still verifying the fix. If you find anything strange, please email admin@chordie.com.


The Wicked End   Avenged Sevenfold

 
 |--3-||--3---|

 


 h e s s s s s s s s s q. s h


 

 
 E|----------------------------------------------------|--------------------------------|
 B|-14b(15)--------14b(15)r14-(14)---12-10-9-8-9-------|--------------------------------|
 G|----------------------------------------------12-11-|-10-9-----/17\13----------------|
 D|----------------------------------------------------|--------------------------------|
 A|----------------------------------------------------|--------------------------------|
 D|----------------------------------------------------|--------------------------------|
 |---3---||---3---||---3---||--3--| |---3---|

 


 [s] [s] [s] [s] [s] [s] [s] [s] [s] [s] [s] [s] [s] [s] [s] [s] [s] [s] [s] [s] [s]  

 
 E|----------------------15-17-18-15----------------------15-18-20-|
 B|-------------------15-------------15----------------15----------|
 G|----------12/15-17-------------------15----------17-------------|
 D|-------12-------------------------------17----17----------------|
 A|-10-13-------------------------------------17-------------------|
 D|----------------------------------------------------------------|
 |---3---||---3---||---3---||---3---||---3---||---3---||---3---||---3---|

 


 [s] [s] [s] [s] [s] [s] [s] [s] [s] [s] [s] [s] [s] [s] [s] [s] [s] [s] [s] [s] [s] [s] [s] [s]  

 
 E|-18-14-------------------------------------------------------------------|
 B|-------17-15-14----14----------------------------14-15-14-14-------------|
 G|----------------14----15-17-15-14----------14-15-------------15-14-------|
 D|----------------------------------15-14-15-------------------------15-14-|
 A|-------------------------------------------------------------------------|
 D|-------------------------------------------------------------------------|

 


 


 q e s s s s s s s s e t t t t t t t h+s t t


 

 
 E|-------------------------------------------------|------------------------------------|
 B|-13b(15)--(15)------------------13-14-15---------|-----------------------14b(15)-16-17|
 G|----------------14--10-13-14-15----------14b(15)-|-(15)14h15p14h15p14h15--------------|
 D|-------------------------------------------------|------------------------------------|
 A|-------------------------------------------------|------------------------------------|
 D|-------------------------------------------------|------------------------------------|
 |---3---||---3---|

 


 s s s s s s s q. e s s s s s s s q.+s e s


 

 
 E|-------------------------------------------|-18-17-16-17-18-19-20b(21)----20b(21)-17-|
 G|-------------------------------------------|-----------------------------------------|
 D|-------------------------------------------|-----------------------------------------|
 A|-------------------------------------------|-----------------------------------------|
 D|-------------------------------------------|-----------------------------------------|

 


 


 s s s s s s s s s s s s s e.


 

 
 E|-22-17----20----------17-16-13-15-13-17-18----|
 B|-------18----18-------------------------------|
 G|----------------17\14-------------------------|
 D|----------------------------------------------|
 A|----------------------------------------------|
 D|----------------------------------------------|
 |---3---| |---3---|

 


 q t t t t t t t t t t t t s s t t t t t t t s.


 

 
 E|-(18)----15p13p12p11/18\15p13p12h15p13p12h15p12-------15p13-----------------------|
 B|------------------------------------------------11-13-------15p14p13-11-10b(11)---|
 G|----------------------------------------------------------------------------------|
 D|----------------------------------------------------------------------------------|
 A|----------------------------------------------------------------------------------|
 D|----------------------------------------------------------------------------------|
 |---3---||---3---|

 


 e s s s s s s q.+e. s


 

 
 E|------------------------------------------------|
 B|-(11)r10----------------------------------------|
 G|----------13-14-14h15-16-17-17b(20)rbrbrbrbr-14-|
 D|------------------------------------------------|
 A|------------------------------------------------|
 D|------------------------------------------------|

 


 


 e. s s s q e e e


 

 
 E|-17b(18)r17------------------------------|
 B|---------------16-15-14----15-17-17b(18)-|
 G|------------14---------------------------|
 D|-----------------------------------------|
 A|-----------------------------------------|
 D|-----------------------------------------|
 |---3---| |---3---|

 


 q s s s q s s s q


 

 
 E|------------------16b(17)----13-12-13--/18----|
 B|-(18)----15-14-15-----------------------------|
 G|----------------------------------------------|
 D|----------------------------------------------|
 A|----------------------------------------------|
 D|----------------------------------------------|

 


 


 s s s s s s h+e


 

 
 E|-(18)-13--------------------------|
 B|-------------15----13-14b(15)-----|
 G|----------15----15----------------|
 D|----------------------------------|
 A|----------------------------------|
 D|----------------------------------|

 


 


 s s s s s s s s q.+s s


 

 
 E|-15-------18\15----------13b(15)----13-|
 B|---------------------------------------|
 G|----15/19-------17-12-15---------------|
 D|---------------------------------------|
 A|---------------------------------------|
 D|---------------------------------------|
 |---3---||---3---| |---3---||---3---||---3---||---3---| 

 


 s s s s s s s t t s s s s s s s s s s s s t t t t


 

 
 E|-17-18-17----17-18-17-16----------------------------------------13-15-16-17-|
 B|----------18-------------15----14-15-14----14-15-14-15-14-15-16-------------|
 G|----------------------------15----------15----------------------------------|
 D|----------------------------------------------------------------------------|
 A|----------------------------------------------------------------------------|
 D|----------------------------------------------------------------------------|
 |---3---||---3---||---3---||---3---||---3---||---3---||---3---||---3---|

 


 [s] [s] [s] [s] [s] [s] [s] [s] [s] [s] [s] [s] [s] [s] [s] [s] [s] [s] [s] [s] [s] [s] [s] [s]  

 
 E|-17-13-------------------------13-16-17-13-------------------------13-17--|
 B|-------15-------------------15-------------15-------------------15--------|
 G|----------14-------------14-------------------14-------------14-----------|
 D|-------------15-------15-------------------------15-------15--------------|
 A|----------------17-17-------------------------------17-17-----------------|
 D|--------------------------------------------------------------------------|
 |---3---||---3---||---3---||---3---||---3---||---3---||---3---||---3---|

 


 [s] [s] [s] [s] [s] [s] [s] [s] [s] [s] [s] [s] [s] [s] [s] [s] [s] [s] [s] [s] [s] [s] [s] [s]  

 
 E|-18-13-------------------------13-17-18-13-------------------------13-17--|
 B|-------15-------------------13-------------15-------------------13--------|
 G|----------15-------------15-------------------15-------------15-----------|
 D|-------------15-------15-------------------------15-------15--------------|
 A|----------------15-17-------------------------------15-17-----------------|
 D|--------------------------------------------------------------------------|
 |---3---||---3---||---3---||---3---||---3---||---3---||---3---||---3---|

 


 [s] [s] [s] [s] [s] [s] [s] [s] [s] [s] [s] [s] [s] [s] [s] [s] [s] [s] [s] [s] [s] [s] [s] [s]  

 
 E|-18-15-------------------------13-17-18-15-------------------------15-18-|
 B|-------15-------------------13-------------15-------------------16-------|
 G|----------15-------------15-------------------15-------------15----------|
 D|-------------17-------17-------------------------17-------17-------------|
 A|----------------16-17-------------------------------16-17----------------|
 D|-------------------------------------------------------------------------|
 |---3---||---3---||---3---||---3---||---3---||---3---| |---3---|

 


 s s s s s s s s s s s s s s s s s s e s s s


 

 
 E|-17-13-------------------------13-17-21-17----------------------17-|
 B|-------15-------------------15-------------18----------------17----|
 G|----------14-------------15-------------------19----------17-------|
 D|-------------15-------15-------------------------19----------------|
 A|----------------17-17-------------------------------19-20----------|
 D|-------------------------------------------------------------------|

 


 


 h h


 

 
 E|-20b(22)-------------(22)------wd----|
 B|----------------------20b(22)--wd----|
 G|-------------------------------------|
 D|-------------------------------------|
 A|-------------------------------------|
 D|-------------------------------------|


Important: The song above is NOT stored on the Chordie server. The original song is hosted at www.azchords.com. Chordie works as a search engine and provides on-the-fly formatting. Chordie does not index songs against artists'/composers' will. To remove this song please click here.

This song is displayed as text-only. Transposing and tuning is only available for chordpro-songs.
Rate #1 of 1 versions

Login - add to songbook

SHARE PAGE  



You need to log in to post comments