Guitar Tabs, Chords and Lyrics
Major upgrade!! After one year development the new version of Chordie is now online! Please give feedback.


Warmness on the Soul  Avenged Sevenfold

(Solo)
The basic strumming pattern for the acoustic guitar is: D DU D DU. Accent the DU, while playing the 1 and 3
more quietly. The acoustic guitar is barely audible, you could probably use something like D DU UD, as well.
 
 e|-------------------------|
 B|-------------------------|
 G|-------------------5--7--|
 D|-----------2/5--7--------|
 A|-------------------------|
 E|-------------------------|

[G] [D] [Em] [Em]  
 
 e|-------------------------|-------------------------|-------------------------|-------------------------|
 B|-------------------------|-------------------------|-------------------------|-------------------------|
 G|-------------------------|-------------------------|-------------------------|------------/9---7-------|
 D|-5~-------------7--5-----|-------------------------|-------------------------|-------7-h9-----------9--|
 A|---------------------7/9-|----7-\5--5----\2--2-----|-7~----------------------|-7-h10-------------------|
 E|-------------------------|-------------------------|-------------------------|-------------------------|
 e|-3-----3--3--3-----3--3--|-2-----2--2-----2--2--2--|-0-----0--0--0-----0--0--|-0-----0--0--0-----0--0--|
 B|-0-----0--0--0-----0--0--|-3-----3--3-----3--3--3--|-0-----0--0--0-----0--0--|-0-----0--0--0-----0--0--|
 G|-0-----0--0--0-----0--0--|-2-----2--2-----2--2--2--|-0-----0--0--0-----0--0--|-0-----0--0--0-----0--0--|
 D|-0-----0--0--0-----0--0--|-0-----0--0-----0--0--0--|-2-----2--2--2-----2--2--|-2-----2--2--2-----2--2--|
 A|-2-----2--2--2-----2--2--|-------------------------|-2-----2--2--2-----2--2--|-2-----2--2--2-----2--2--|
 E|-3-----3--3--3-----3--3--|-------------------------|-0-----0--0--0-----0--0--|-0-----0--0--0-----0--0--|

[C] [G] [D] [D]  
 
 e|-------------------------|-------------------------|-------------------------|-------------------------|
 B|-------------------------|-------------------------|-------------------------|------------/10----------|
 G|----------------7----/9--|-9-\7--------------------|-------------------------|/7-----------------------|
 D|-9/10--------------------|----------9-------9h10p9\|-7~----------------------|-------7-----------7-----|
 A|-------------------------|-------------------------|-------------------------|-------------------------|
 E|-------------------------|-------------------------|-------------------------|-------------------------|
 e|-0-----0--0--0-----0--0--|-3-----3--3--3-----3--3--|-2-----2--2--2-----2--2--|-2-----2--2--2-----2--2--|
 B|-1-----1--1--1-----1--1--|-0-----0--0--0-----0--0--|-3-----3--3--3-----3--3--|-3-----3--3--3-----3--3--|
 G|-0-----0--0--0-----0--0--|-0-----0--0--0-----0--0--|-2-----2--2--2-----2--2--|-2-----2--2--2-----2--2--|
 D|-2-----2--2--2-----2--2--|-0-----0--0--0-----0--0--|-0-----0--0--0-----0--0--|-0-----0--0--0-----0--0--|
 A|-3-----3--3--3-----3--3--|-2-----2--2--2-----2--2--|-------------------------|-------------------------|
 E|-------------------------|-3-----3--3--3-----3--3--|-------------------------|-------------------------|

[C] [D] [G] [D/F#] [Em] [D]  
 
 e|-------------------------|-------------------------|-------------------------|-------------------------|
 B|-------------------------|-------------------------|-/8---7------8---7-------|/10---8---7--8---7-------|
 G|-5-/7--5--------7---7/9--|-9-\7--7~----------7\----|----------8-----------8--|----------------------7--|
 D|-------------------------|-------------------------|-------------------------|-------------------------|
 A|-------------------------|-------------------------|-------------------------|-------------------------|
 E|-------------------------|-------------------------|-------------------------|-------------------------|
 e|-0-----0--0--0-----0--0--|-2-----2--2--2-----2--2--|-3-----3--3--2-----2--2--|-0-----0--0--2-----2--2--|
 B|-1-----1--1--1-----1--1--|-3-----3--3--3-----3--3--|-0-----0--0--3-----3--3--|-0-----0--0--3-----3--3--|
 G|-0-----0--0--0-----0--0--|-2-----2--2--2-----2--2--|-0-----0--0--2-----2--2--|-0-----0--0--2-----2--2--|
 D|-2-----2--2--2-----2--2--|-0-----0--0--0-----0--0--|-0-----0--0--0-----0--0--|-2-----2--2--0-----0--0--|
 A|-3-----3--3--3-----3--3--|-------------------------|-2-----2--2--x-----x--x--|-2-----2--2--------------|
 E|-------------------------|-------------------------|-3-----3--3--2-----2--2--|-0-----0--0--------------|

[C] [D]  
 
 e|-------------------------|-------------------------|
 B|----------------7-h8-----|-7\----------------------|
 G|-7-/9--------------------|-------------------------|
 D|-------------------------|-------------------------|
 A|-------------------------|-------------------------|
 E|-------------------------|-------------------------|
 e|-0-----0--0--0-----0--0--|-2-----------------------|
 B|-1-----1--1--1-----1--1--|-3-----------------------|
 G|-0-----0--0--0-----0--0--|-2-----------------------|
 D|-2-----2--2--2-----2--2--|-0-----------------------|
 A|-3-----3--3--3-----3--3--|-------------------------|
 E|-------------------------|-------------3-----2-----|

(Verse)
[Em] [C] [G] [D]  
 
 e|-0-----0--0--0-----0--0--|-0-----0--0--0-----0--0--|-3-----3--3--3-----3--3--|-2-----2--2--2-----2--2--|
 B|-0-----0--0--0-----0--0--|-1-----1--1--1-----1--1--|-0-----0--0--0-----0--0--|-3-----3--3--3-----3--3--|
 G|-0-----0--0--0-----0--0--|-0-----0--0--0-----0--0--|-0-----0--0--0-----0--0--|-2-----2--2--2-----2--2--|
 D|-2-----2--2--2-----2--2--|-2-----2--2--2-----2--2--|-0-----0--0--0-----0--0--|-0-----0--0--0-----0--0--| 4x
 A|-2-----2--2--2-----2--2--|-3-----3--3--3-----3--3--|-2-----2--2--2-----2--2--|-------------------------|
 E|-0-----0--0--0-----0--0--|-------------------------|-3-----3--3--3-----3--3--|-------------------------|

(Chorus)
[C] [D] [Em] [Em]  
 
 e|-0-----0--0--0-----0--0--|-2-----2--2--2-----2--2--|-0-----0--0--0-----0--0--|-0-----0--0--0-----0--0--|
 B|-1-----1--1--1-----1--1--|-3-----3--3--3-----3--3--|-0-----0--0--0-----0--0--|-0-----0--0--0-----0--0--|
 G|-0-----0--0--0-----0--0--|-2-----2--2--2-----2--2--|-0-----0--0--0-----0--0--|-0-----0--0--0-----0--0--|
 D|-2-----2--2--2-----2--2--|-0-----0--0--0-----0--0--|-2-----2--2--2-----2--2--|-2-----2--2--2-----2--2--|
 A|-3-----3--3--3-----3--3--|-------------------------|-2-----2--2--2-----2--2--|-2-----2--2--2-----2--2--|
 E|-------------------------|-------------------------|-0-----0--0--0-----0--0--|-0-----0--0--0-----0--0--|

[C] [D] [G] [D/F#] [Em] [D]  
 
 e|-0-----0--0--0-----0--0--|-2-----2--2--2-----2--2--|-3-----3--3--2-----2--2--|-0-----0--0--2-----2--2--|
 B|-1-----1--1--1-----1--1--|-3-----3--3--3-----3--3--|-0-----0--0--3-----3--3--|-0-----0--0--3-----3--3--|
 G|-0-----0--0--0-----0--0--|-2-----2--2--2-----2--2--|-0-----0--0--2-----2--2--|-0-----0--0--2-----2--2--|
 D|-2-----2--2--2-----2--2--|-0-----0--0--0-----0--0--|-0-----0--0--0-----0--0--|-2-----2--2--0-----0--0--|
 A|-3-----3--3--3-----3--3--|-------------------------|-2-----2--2--x-----x--x--|-2-----2--2--------------|
 E|-------------------------|-------------------------|-3-----3--3--2-----2--2--|-0-----0--0--------------|

[C] [D]  
 
 e|-0-----0--0--0-----0--0--|-2-----------------------|
 B|-1-----1--1--1-----1--1--|-3-----------------------|
 G|-0-----0--0--0-----0--0--|-2-----------------------|
 D|-2-----2--2--2-----2--2--|-0-----------------------|
 A|-3-----3--3--3-----3--3--|-------------------------|
 E|-------------------------|-------------3-----2-----|

(Piano Solo)
[Em] [C] [G] [D]  
 
 e|-0-----0--0--0-----0--0--|-0-----0--0--0--0--0--0--|-3-----3--3--3-----3--3--|-2-----2--2--2--2--2--2--|
 B|-0-----0--0--0-----0--0--|-1-----1--1--1--1--1--1--|-0-----0--0--0-----0--0--|-3-----3--3--3--3--3--3--|
 G|-0-----0--0--0-----0--0--|-0-----0--0--0--0--0--0--|-0-----0--0--0-----0--0--|-2-----2--2--2--2--2--2--|
 D|-2-----2--2--2-----2--2--|-2-----2--2--2--2--2--2--|-0-----0--0--0-----0--0--|-0-----0--0--0--0--0--0--| 4x
 A|-2-----2--2--2-----2--2--|-3-----3--3--3--3--3--3--|-2-----2--2--2-----2--2--|-------------------------|
 E|-0-----0--0--0-----0--0--|-------------------------|-3-----3--3--3-----3--3--|-------------------------|

(Distorted Chorus)
[C] [D] [Em] [Em]  
 
 e|-0-----0--0--0-----0--0--|-2-----2--2--2-----2--2--|-0-----0--0--0-----0--0--|-0-----0--0--0-----0--0--|
 B|-1-----1--1--1-----1--1--|-3-----3--3--3-----3--3--|-0-----0--0--0-----0--0--|-0-----0--0--0-----0--0--|
 G|-0-----0--0--0-----0--0--|-2-----2--2--2-----2--2--|-0-----0--0--0-----0--0--|-0-----0--0--0-----0--0--|
 D|-2-----2--2--2-----2--2--|-0-----0--0--0-----0--0--|-2-----2--2--2-----2--2--|-2-----2--2--2-----2--2--|
 A|-3-----3--3--3-----3--3--|-------------------------|-2-----2--2--2-----2--2--|-2-----2--2--2-----2--2--|
 E|-------------------------|-------------------------|-0-----0--0--0-----0--0--|-0-----0--0--0-----0--0--|
 e|-------------------------|-------------------------|-------------------------|-------------------------|
 B|-------------------------|-------------------------|-------------------------|-------------------------|
 G|-5-----------5-----------|-7-----------7-----------|-------------------------|-------------------------|
 D|-5-----------5-----------|-7-----------7-----------|-2-----------2-----2-----|-2-----2-----2-----2-----|
 A|-3-----------3-----------|-5-----------5-----------|-2-----------2-----2-----|-2-----2-----2-----2-----|
 E|-------------------------|-------------------------|-0-----------0-----0-----|-0-----0-----0-----0-----|

[C] [D] [G] [D/F#] [Em] [D]  
 
 e|-0-----0--0--0-----0--0--|-2-----2--2--2-----2--2--|-3-----3--3--2-----2--2--|-0-----0--0--2-----2--2--|
 B|-1-----1--1--1-----1--1--|-3-----3--3--3-----3--3--|-0-----0--0--3-----3--3--|-0-----0--0--3-----3--3--|
 G|-0-----0--0--0-----0--0--|-2-----2--2--2-----2--2--|-0-----0--0--2-----2--2--|-0-----0--0--2-----2--2--|
 D|-2-----2--2--2-----2--2--|-0-----0--0--0-----0--0--|-0-----0--0--0-----0--0--|-2-----2--2--0-----0--0--|
 A|-3-----3--3--3-----3--3--|-------------------------|-2-----2--2--x-----x--x--|-2-----2--2--------------|
 E|-------------------------|-------------------------|-3-----3--3--2-----2--2--|-0-----0--0--------------|
 e|-------------------------|-------------------------|-------------------------|-------------------------|
 B|-------------------------|-------------------------|-------------------------|-------------------------|
 G|-5-----------5-----------|-7-----------7-----------|-------------------------|-------------7-----------|
 D|-5-----------5-----------|-7-----------7-----------|-5-----------5-----------|-2-----------7-----------|
 A|-3-----------3-----------|-5-----------5-----------|-5-----------5-----------|-2-----------5-----------|
 E|-------------------------|-------------------------|-3-----------2-----------|-0-----------------------|

[C] [D]  
 
 e|-0-----0--0--0-----0--0--|-2-----------------------|
 B|-1-----1--1--1-----1--1--|-3-----------------------|
 G|-0-----0--0--0-----0--0--|-2-----------------------|
 D|-2-----2--2--2-----2--2--|-0-----------------------|
 A|-3-----3--3--3-----3--3--|-------------------------|
 E|-------------------------|-------------3-----2-----|
 e|-------------------------|-------------------------|-------------------------|
 B|-------------------------|-------------------------|-------------------------|
 G|-5-----------5-----------|-7-----------------------|-------------------------|
 D|-5-----------5-----------|-7-----------------------|-------------------------|
 A|-3-----------3-----------|-5-----------------------|-------------------------|
 E|-------------------------|-------------3-----2-----|-0-----------------------| 


Important: The song above is NOT stored on the Chordie server. The original song is hosted at www.azchords.com. Chordie works as a search engine and provides on-the-fly formatting. Chordie does not index songs against artists'/composers' will. To remove this song please click here.

Text color:
Chord color:
Chord grids: 
Font size:    
Page size: 

C D D/F# Em G
Rate #1 of 4 versions

Login - add to songbook

SHARE PAGE  




You need to log in to post comments