Guitar Tabs, Chords and Lyrics
Server problems seems to be fixed. Chordie has been experiencing problems with songs disappearing. These issues now seems to be fixed, but still verifying the fix. If you find anything strange, please email admin@chordie.com.


We Come Out at Night  Avenged Sevenfold

[Intro/Verse] 
 
 e|---------------------------------------------------------------------------|
 B|---------------------------------------------------------------------------|
 G|---------------------------------------------------------------------------|
 D|----------------------------5-5-----------------6--------------------------| 6x
 A|-0-0------------1-1-0-3-3-0-3-3-1-1-1-0---------5--------------------------|
 D|-0-0------------1-1-0-3-3-0-----1-1-1-0---------6--------------------------|
 PM-------------------------------------|

[Lead Guitar] 
 
 e|---------------------------------------------------------------------------|
 B|---------------------------------------------------------------------------|
 G|-/7-----8-----5/10-----12----8---7-----8-----5---3-----5-----3-------------|
 D|---------------------------------------------------------------------------| 2x
 A|---------------------------------------------------------------------------|
 D|---------------------------------------------------------------------------|

[Bridge 1] 
 
 e|---------------------------------------------------------------------------|
 B|---------------------------------------------------------------------------|
 G|---------------------------------------------------------------------------|
 D|-1--------4---3---1--0------------3-------6---4---3--4---------------------|
 A|-1--------4---3---1--0------------3-------6---4---3--4---------------------|
 D|-1--------4---3---1--0------------3-------6---4---3--4-----7--8------------|

ph
 
 e|---------------------------------------------------------------------------|
 B|---------------------------------------------------------------------------|
 G|---------------------------------------------------------------------------|
 D|-1--------4---3---1--0------------3-------6---4---3------------------------|
 A|-1--1-1---4---3---1--0------------3-------6---4---3------------------------|
 D|-1--1-1---4---3---1--0------------3-------6---4---3------------------------|

PM-|
[Verse] 
 
 e|---------------------------------------------------------------------------|
 B|-------4-4-4-4-------4-4-4-4-------7-7-7-7-------7-7-7-7-------------------|
 G|-------x-x-x-x-------x-x-x-x-------x-x-x-x-------x-x-x-x-------------------|
 D|-------1-1-1-1-------1-1-1-1-------4-4-4-4-------4-4-4-4-------------------| 4x
 A|-1-1-----------1-1-----------0-0---5-5-5-5-0-0---5-5-5-5-------------------|
 D|-1-1-----------1-1-----------0-0-----------0-0-----------------------------|
 e|---------------------------------------------------------------------------|
 B|---------------------------------------------------------------------------|
 G|---------------------------------------------------------------------------|
 D|-8--------10---7-----------------------------------------------------------| 5x
 A|-8--------10---7---0-0--------0-0--------0-0-------------------------------|
 D|-8--------10---7---0-0--------0-0--------0-0-------------------------------|
 PM-----------------------|

[Lead Guitar] 
 
 e|---------------------------------------------------------------------------|
 B|---------------------------------------------------------------------------|
 G|---7---------8---------7---------------------------------------------------|
 D|-7---7-----8---8-----7---7-------------------------------------------------| 2x
 A|---------------------------------------------------------------------------|
 D|---------------------------------------------------------------------------|

End on:
 
 e|---------------------------------------------------------------------------|
 B|---------------------------------------------------------------------------|
 G|---------------------------------------------------------------------------|
 D|-0-------------------------------------------------------------------------|
 A|-0-------------------------------------------------------------------------|
 D|-0-------------------------------------------------------------------------|

[Cborus] 
The strumming pattern really isn't that important here, just play something that sounds nice to you or just
simple 8th notes if you must.
 
 e|---------------------------------------------------------------------------|
 B|---------------------------------------------------------------------------|
 G|------------5--------------------------------------------------------------|
 D|-0----------5----------3---------------------------------------------------|
 A|-0----------3----------3---------------------------------------------------|
 D|-0---------------------3------2-3-5-3-2-3-5-3-2-3--------------------------|
 e|---------------------------------------------------------------------------|
 B|---------------------------------------------------------------------------|
 G|------------5--------------------------------------------------------------|
 D|-0----------5----------3---------------------------------------------------|
 A|-0----------3----------3----------3-3-3---2-2-2---3-3-3--------------------|
 D|-0---------------------3----------3-3-3---2-2-2---3-3-3--------------------|
 PM--------------------|
 e|---------------------------------------------------------------------------|
 B|---------------------------------------------------------------------------|
 G|------------5--------------------------------------------------------------|
 D|-0----------5----------3---------------------------------------------------|
 A|-0----------3----------3---------------------------------------------------|
 D|-0---------------------3------2-3-5-3-2-3-5-3-2-3--------------------------|
 e|---------------------------------------------------------------------------|
 B|---------------------------------------------------------------------------|
 G|------------5--------------------------------------------------------------|
 D|-0----------5----------3---------------------------------------------------|
 A|-0----------3----------3----------3-3-3---2-2-2---3-3-3--------------------|
 D|-0---------------------3----------3-3-3---2-2-2---3-3-3--------------------|
 PM--------------------|

[Bridge] 
Guitar 1:
 
 e|-----------------------------------------------------------------------------|
 B|-----------------------------------------------------------------------------|
 G|-----------------------------------------------------------------------------|
 D|-----------------------------------------------------------------------------| 2x
 A|---/5----------------------------------------/6-----------------/6----7-6----|
 D|-0------6-5---6\---1--0------6-5---6\---0--1-----7-6---7---0--1-----7------1-|

Guitar 2:
 
 e|-----------------------------------------------------------------------------|
 B|-----------------------------------------------------------------------------|
 G|-----------------------------------------------------------------------------|
 D|-0-----------------1--0-----------------0--1-------------------------------1-| 2x
 A|-0-----------------1--0-----------------0--1-------------------------------1-|
 D|-0-----------------1--0-----------------0--1-------------------------------1-|

Both guitars then play the same riff. On the last repeat
before the next riff, the guitars end on a different note:
 
 e|-----------------------------------------------------------------------------|
 B|-----------------------------------------------------------------------------|
 G|-----------------------------------------------------------------------------|
 D|-----------------------------------------------------------------------------|
 A|---/5----------------------------------------/6-----------------/6----7-6----|
 D|-0------6-5---6\---1--0------6-5---6\---0--1-----7-6---7---0--1-----7------1-|
 e|-----------------------------------------------------------------------------|
 B|-----------------------------------------------------------------------------|
 G|-----------------------------------------------------------------------------|
 D|-----------------------------------------------------------------------------|
 A|---/5----------------------------------------/6-----------------/6----7-6----|
 D|-0------6-5---6\---1--0------6-5---6\---0--1-----7-6---7---0--1-----7------7-|

^
| this one
[Bridge] 
 
 e|---------------------------------------------------------------------------|
 B|---------------------------------------------------------------------------|
 G|---------------------------------------------------------------------------|
 D|---------------------------------------------------------------------------| 4x
 A|-0-0-0--0-0-0--0-0-0--------------------1-1-1--1-1-1--1-1-1----------------|
 D|-0-0-0--0-0-0--0-0-0--------------------1-1-1--1-1-1--1-1-1----------------|
 PM--------------------------------------------------------|

[Verse] 
 
 e|---------------------------------------------------------------------------|
 B|---------------------------------------------------------------------------|
 G|---------------------------------------------------------------------------|
 D|-0-----0-1---4-----1p0-----0-1-4-4--0-----0-1---4-----1p0------------0-----| 2x
 A|-0--0--0-1---4-----1p0--0--0-1-4-4--0--0--0-1---4-----1p0--0-0-0h1h3-------|
 D|-0--0--0-1---4-----1p0--0--0-1-4-4--0--0--0-1---4-----1p0--0-0-------------|

PM PM PM PM-|
[Bridge] 
 
 e|---------------------------------------------------------------------------|
 B|---------------------------------------------------------------------------|
 G|---------------------------------------------------------------------------|
 D|-0-0---0--0--0-0--------------0--------------------------------------------| 1x
 A|-0-0---0--0--0-0----0-0-0h1h3----------------------------------------------|
 D|-0-0---0--0--0-0----0-0----------------------------------------------------|
 e|---------------------------------------------------------------------------|
 B|---------------------------------------------------------------------------|
 G|---------------------------------------------------------------------------|
 D|-0-0-0-0--0--0-0--------------0--------------------------------------------| 3x
 A|-0-0-0-0--0--0-0----0-0-0h1h3----------------------------------------------|
 D|-0-0-0-0--0--0-0----0-0----------------------------------------------------|

PM-|
[Clean Cborus] 
Aside from the C chord he is only playing powerchords, but the chords above the tab would also work, if you
want to play actual chords.
[Dm] [C] [F] 
 
 e|---------------0-----------------------------------------------------------|
 B|(3)------------1-----------------------------------------------------------|
 G|(2)------------0-----------------------------------------------------------|
 D|-0-------------2------------3----------------------------------------------|
 A|-0-------------3------------3----------------------------------------------|
 D|-0--------------------------3----------------------------------------------|
 e|---------------0-----------------------------------------------------------|
 B|(3)------------1-----------------------------------------------------------|
 G|(2)------------0-----------------------------------------------------------|
 D|-0-------------2------------3-------------3-3-3-3-2-2-2-2-2----------------|
 A|-0-------------3------------3-------------3-3-3-3-2-2-2-2-2----------------|
 D|-0--------------------------3-------------3-3-3-3-2-2-2-2-2----------------|
 e|-----------------------0---------------------------------------------------|
 B|(3)------------------1---1-------------------------------------------------|
 G|(2)----------------0-------0-----------------------------------------------|
 D|-0---------------2-----------2--3---------3-3-3-3/5-5-5-5------------------|
 A|-0-------------3----------------3---------3-3-3-3/5-5-5-5------------------|
 D|-0------------------------------3---------3-3-3-3/5-5-5-5------------------|
 e|---------------0-----------------------------------------------------------|
 B|(3)------------1-----------------------------------------------------------|
 G|(2)------------0-----------------------------------------------------------|
 D|-0-------------2------------3----------------------------------------------|
 A|-0-------------3------------3-------------3-3-3---2-2-2---3-3-3------------|
 D|-0--------------------------3-------------3-3-3---2-2-2---3-3-3------------|
 PM-------------------|

Then go back into the distorted chorus.
[Cborus] 
 
 e|---------------------------------------------------------------------------|
 B|---------------------------------------------------------------------------|
 G|------------5--------------------------------------------------------------|
 D|-0----------5----------3---------------------------------------------------|
 A|-0----------3----------3---------------------------------------------------|
 D|-0---------------------3------2-3-5-3-2-3-5-3-2-3--------------------------|
 e|---------------------------------------------------------------------------|
 B|---------------------------------------------------------------------------|
 G|------------5--------------------------------------------------------------|
 D|-0----------5----------3---------------------------------------------------|
 A|-0----------3----------3----------3-3-3---2-2-2---3-3-3--------------------|
 D|-0---------------------3----------3-3-3---2-2-2---3-3-3--------------------|
 PM--------------------|
 e|---------------------------------------------------------------------------|
 B|---------------------------------------------------------------------------|
 G|------------5--------------------------------------------------------------|
 D|-0----------5----------3---------------------------------------------------|
 A|-0----------3----------3---------------------------------------------------|
 D|-0---------------------3------2-3-5-3-2-3-5-3-2-3--------------------------|
 e|---------------------------------------------------------------------------|
 B|---------------------------------------------------------------------------|
 G|------------5--------------------------------------------------------------|
 D|-0----------5----------3---------------------------------------------------|
 A|-0----------3----------3----------3-3-3---2-2-2---3-3-3--------------------|
 D|-0---------------------3----------3-3-3---2-2-2---3-3-3--------------------|
 PM--------------------| 


Important: The song above is NOT stored on the Chordie server. The original song is hosted at www.azchords.com. Chordie works as a search engine and provides on-the-fly formatting. Chordie does not index songs against artists'/composers' will. To remove this song please click here.

Text color:
Chord color:
Chord grids: 
Font size:    
Page size: 

C Dm F
Rate #1 of 1 versions

Login - add to songbook

SHARE PAGE  




You need to log in to post comments