Guitar Tabs, Chords and Lyrics
Server problems seems to be fixed. Chordie has been experiencing problems with songs disappearing. These issues now seems to be fixed, but still verifying the fix. If you find anything strange, please email admin@chordie.com.


Slumber  Bad Religion

ALL strings half a step
(eb-Bb-Gb-Db-Ab-Eb)
Chords:
 
 F(1-3-3-5-1) F5(1-3-3-x-x)
 G(3-2-0-0-3) G5(3-5-5-x-x)
 A(0-2-2-2-0) A5(5-7-7-x-x)

C5(x-3-5-5-x)
Intro
[F] [-] [G] [-] [A]  
Then vocals start:
Riff A
 
 e:---------------------------------------------------------------------|
 B:---------------------------------------------------------------------|
 G:---------------------------------------------------------------------|
 D:--3----3-3----2----3-3------------------------------------------0----|
 A:---------------------------------------------3--3---2--2---3--3------|
 E:---------------------------------------------------------------------|

So you're feeling unimportant 'Cuz you've got nothing to say
 
 e:-----------------------------------------------------------------------|
 B:-----------------------------------------------------------------------|
 G:-----------------------------------------------------------------------|
 D:--3----3-3----2----3-3--------------------------------------------0----|
 A:---------------------------------------------3--3---2--2---3--3---2----|
 E:-----------------------------------------------------------------------|

And your life is just a ramble No one understands you anyway
Chorus:
Riff B
[F5] [G5] [A5] [F5//] [G5//] 
[A5/] [//]  
 
 Slumber will come soon-----, and you are helping to put it to sleep----

[F5] [G5] [C5] [G5] 
Side by side we do our share, faithfully assuring that
[F5] [G5] [A5]  
Slumber will come soon.
 
 e:-----------------------------------------------|
 B:-----------------------------------------------|
 G:------0-----------0----------------------------|
 D:--3--------3--2--------------0--0----0---------|
 A:----------------------------3---2---3----------|
 E:-----------------------------------------------|

So you're feeling unimportant
 
 e:------------------------------------------------|
 B:------------------------------------------------|
 G:------0-----------0-----------------------------|
 D:--3--------3--2--------------0--0----0----2-----|
 A:----------------------------3---2---3-------0---|
 E:------------------------------------------------|

'Cuz you've got nothing to say
Song Structure
Intro: F G A
Verse 1: Riff A
Verse 2: Riff A
Chorus: Riff B
Verse 3: Riff A
Verse 4: Riff B (like the chorus)
Verse 5: Riff A
Outro: Riff B

Important: The song above is NOT stored on the Chordie server. The original song is hosted at www.azchords.com. Chordie works as a search engine and provides on-the-fly formatting. Chordie does not index songs against artists'/composers' will. To remove this song please click here.

Text color:
Chord color:
Chord grids: 
Font size:    
Page size: 

A A5 C5 F F5 G G5
Rate #1 of 8 versions

Jango Player

Login - add to songbook

SHARE PAGE  




You need to log in to post comments