Guitar Tabs, Chords and Lyrics
Update 25:10. 13:00. Site is back up running again. Songbooks are recovered. Woring on getting search back up..


Literally Baby  Ball Park Music

Chords: B E x2
Tab:
 
 e|---------|-----------------------|---------|
 B|---------|-----------------------|---------|
 G|---------|-----------------------|---------|
 D|---------|-----------------------|---------|
 A|---------|------5---5---5--7-7---|-7-------|
 E|-19\\\\\\|-7\----5h7-5h7-7-------|---0-0-0-|

[B]I got shot straight out of a canon,
[E]Up into the air all the circus animals
[B]open their jaw and wave their shiny fangs at me as I fly down to [E]you
[B]So come on get on t[E]op
[B]Jump up and down for e[E]ver
Chords:
[D] [G] [F#] [F#] [F#/A#] [F#/A#] [Bm] [D] [G] [F#] 
Guitar Harmony with the 2 guitars
Guitar 1
 
 e|10-7---7---------------------------|-------9-9--9-10-10-|--------|
 B|-----10-10-8-10-8-7-8-10-8-7-8-10-8|--------------------|--------|
 G|-----------------------------------|-9-9--9-------------|-9999b9b|
 D|-----------------------------------|--------------------|--------|
 A|-----------------------------------|--------------------|--------|
 E|-----------------------------------|--------------------|--------|

Guitar 2
 
 e|----------------------------------|-----------------|------------|
 B|-10-8-7-8-7---7-------7-------7---|--------------7-7|------------|
 G|------------9---9-7-9---9-7-9---9-|6-6--6-9-9--9----|666699996666|
 D|----------------------------------|-----------------|------------|
 A|----------------------------------|-----------------|------------|
 E|----------------------------------|-----------------|------------|

[B]Elton John is not the perfect rifle but you
[E]Fire him good, you can make a miracle in
[B]her two hands let the little animal c[E]rawl into the room
[B]So come on get on [E]top
[B]Jump up and down for [E]ever
Chorus:
[D] Our bits sm[G]ash together like [F#]fre[F#]sh frui[F#]t i[F#]n t[F#]he su[F#]n[Bm] [Bm]
[D]We‚??re not [G]worried we‚??re ju[F#]st [F#]having [F#]fun[F#] [F#] [F#] [Bm] [Bm]
[D] Our bits sm[G]ash together like [F#]fre[F#]sh frui[F#]t i[F#]n t[F#]he su[F#]n[Bm] [Bm]
[D]We‚??re no[G]t worried we‚??re[F#] just having fun‚??‚??literally Baby
Solo
Chords: B E B E
 
 e|----------------------------------|-7----7----7------------------|
 B|----------------------------------|-7----7----7----10p7-7--------|
 G|----------------------------------|-9b11-9b11-9b11-----9--9p7-7--|
 D|----------9--9-11-11b13r11-9-11-9-|--------------------------9--9|
 A|-----9h11--11---------------------|------------------------------|
 E|-9h11-----------------------------|------------------------------|
 e|----7--x-x------------|-/12--/10---/7-/7--|
 B|----7--x-x-7b9-7v-----|-/12--/10---/7-/7--|
 G|-7h8---x-x------------|-------------------|
 D|----------------------|-------------------|
 A|----------------------|-------------------|
 E|----------------------|-------------------|

[D] Our bits sm[G]ash together like [F#]fre[F#]sh frui[F#]t i[F#]n t[F#]he su[F#]n[Bm] [Bm]
[D]We‚??re not [G]worried we‚??re ju[F#]st [F#]having [F#]fun[F#] [F#] [F#] [Bm] [Bm]
[D] Our bits sm[G]ash together like [F#]fre[F#]sh frui[F#]t i[F#]n t[F#]he su[F#]n[Bm] [Bm]
[D]We‚??re no[G]t worried we‚??re[F#] just having fun‚??‚??literally Baby
[B]So come on get on to[E]p
[B]Jump up and down for [E]ever

Important: The song above is NOT stored on the Chordie server. The original song is hosted at www.azchords.com. Chordie works as a search engine and provides on-the-fly formatting. Chordie does not index songs against artists'/composers' will. To remove this song please click here.

Text color:
Chord color:
Chord grids: 
Font size:    
Page size: 

B Bm D E F# F#/A# G
Rate #1 of 2 versions

Jango Player

Login - add to songbook

SHARE PAGE  



You need to log in to post comments