Guitar Tabs, Chords and Lyrics
Update 25:10. 13:00. Site is back up running again. Songbooks are recovered. Woring on getting search back up..


Shithaus  Ball Park Music

Intro/Main Riff/Verse:
 
 e||------------------------------------------------------------------------------------------------|
 B||------------------------------------------------------------------------------------------------|
 G||------------------------------------------------------------------------------------------------|
 D||------------------------------------------------------------------------------------------------|
 A||--3------3-----3---2-2-5-4--2-2-5-4--3-----3------2-2-5-4--2-2-5-4--3--------2-2-5-4--2-2-5-4---|
 E||----4-4---4-4---4----------------------4-4---4-4-----------------------44444--------------------|

Sick in the stomach
People are just people all the time
Eggshells and bottles
I'm dancing and I'm drinking like a mime
Pre-Chorus:
 
 e|--------------------------------------------------------------------------|
 B|--------------------------------------------------------------------------|
 G|------------6??5---5-----5--------------------6??5---5-----5----------4-5---|
 D|--------3-6------------------6--8--------3-6--------------------6-8-------|
 A|--4---4---------6---6----6-8-------4---4---------6---6------6-8-----------|
 E|--------------------------------------------------------------------------|

But hey, I could be dead or not
I could start up then stop
I could get photoshopped
Onto the front page of Time
Chorus:
[C]You give me papers I will [Fm]sign
It's gonna take at least a [C#]week to get back
To [C#m]get back to normal get back to normal get back to normal, hey
Main Riff/Verse:
 
 e||------------------------------------------------------------------------------------------------|
 B||------------------------------------------------------------------------------------------------|
 G||------------------------------------------------------------------------------------------------|
 D||------------------------------------------------------------------------------------------------|
 A||--3------3-----3---2-2-5-4--2-2-5-4--3-----3------2-2-5-4--2-2-5-4--3--------2-2-5-4--2-2-5-4---|
 E||----4-4---4-4---4----------------------4-4---4-4-----------------------44444--------------------|

Homes made of boxes
Of easy-to-assemble coupon-ettes
Layman in the castle
Is rushing constructivist invention
Pre-Chorus:
 
 e|-------------------------------------------------------------------------|
 B|-------------------------------------------------------------------------|
 G|------------6??5--------5---------------------6??5--------5-----------4-5--|
 D|--------3-6------------------6--8--------3-6------------------6--8-------| x2
 A|--4---4-----------6------6-8-------4---4-----------6------6-8------------|
 E|-------------------------------------------------------------------------|

But hey, I could be dead or not
I could start up then stop
We could be best of friends
Or adulterist scum in their beds
We could be dead or not
We could start up then stop
I could get photoshopped
Onto the front page of Time
Chorus:
[C]You give me papers I will [Fm]sign
It's gonna take at least a [C#]week to get back
To [C#m]get back to normal get back to normal get back to normal, hey
Bridge:
And [Db]I don't nece[Eb]ssarily agree
With [Ab]all the [Eb/G]stuff that's [Fm]happening to me
But [E]cowards will be [Ab]cowards
And a [Eb7]passing man on a horse won't notice sh*t
Main Riff/Outro:
 
 e||------------------------------------------------------------------------------------------------|
 B||------------------------------------------------------------------------------------------------|
 G||------------------------------------------------------------------------------------------------|
 D||------------------------------------------------------------------------------------------------|
 A||--3------3-----3---2-2-5-4--2-2-5-4--3-----3------2-2-5-4--2-2-5-4--3--------2-2-5-4--2-2-5-4---|
 E||----4-4---4-4---4----------------------4-4---4-4-----------------------44444--------------------|


Important: The song above is NOT stored on the Chordie server. The original song is hosted at www.azchords.com. Chordie works as a search engine and provides on-the-fly formatting. Chordie does not index songs against artists'/composers' will. To remove this song please click here.

Text color:
Chord color:
Chord grids: 
Font size:    
Page size: 

Ab C C# C#m Db E Eb Eb/G Eb7 Fm
Rate #1 of 1 versions

Jango Player

Login - add to songbook

SHARE PAGE  




You need to log in to post comments