Guitar Tabs, Chords and Lyrics
Update 25:10. 13:00. Site is back up running again. Songbooks are recovered. Woring on getting search back up..


Return Post  The Bangles

Guitar 1 ?? Lead
Guitar 2 ?? Overdubbed lead
filler 1 1st line of verse
 
 e|------------|---------|
 B|------0-0---|----0-0--|
 G|----1-1-1---|--1-1-1--|
 D|----2-0-2---|--2-0-2--|
 A|----2-2-2---|--2-2-2--|
 E|-0----------|---------|

filler 2 2nd line
[A] [A7] [E] [E7]  
 
 e|------0-0---|---------|
 B|------2-2---|----0-0--|
 G|----2-0-2---|--1-1-1--|
 D|----2-2-2---|--2-0-2--|
 A|-0----------|--2-2-2--|
 E|------------|---------|

filler 3 3rd line
[A] [A7] [F]  
 
 e|------0-0---|------1-1--|
 B|------2-2---|--1---1-1--|
 G|----2-0-2---|--2---2-2--|
 D|----2-2-2---|--3---3-3--|
 A|-0----------|--3-----3--|
 E|------------|1----------|

[Intro] Guitar 1
 
 e|---------------------|---------------------|---------------------|---------------------|
 B|---------------------|---------------------|---------------------|---------------------|
 G|---------------------|---------------------|---------------------|---------------------|
 D|---2-0--------0------|-----2-0--------0----|-----2-0-------0-----|-----2-0-------0-----|
 A|--------0-0h2--------|----------0-0h2------|---------0-0h2-------|---------0-0h2-------|
 E|---------------------|-0-0-----------------|-0-0-----------------|-0-0-----------------|
 PM-------------------------------------------------------------------------------------
 e|---------------------|---------------------|
 B|---------------------|---------------------|
 G|---------------------|---------------------|
 D|-----2-0--------0----|-----2-0--------0----|
 A|----------0-0h2------|----------0-0h2------|
 E|-0-0-----------------|-0-0-----------------|
 PM------------------------------------------

[Verse 1] Guitar 1
[E]Writing the lines as they come to me
[A]Scratching them out almost [E]immediately
[A]Don't know what it's [F]done to me
 
 e|---------------------|---------------------|
 B|---------------------|---------------------|
 G|---------------------|---------------------|
 D|-----2-0--------0----|-----2-0--------0----|
 A|----------0-0h2------|----------0-0h2------|
 E|-0-0-----------------|-0-0-----------------|
 PM------------------------------------------

[Verse 2] Guitar 1
[E]It's cold and it's wet it's been raining all night
[A]And there's a letter I've been [E]trying to write
[A]Something better waiting [F]somewhere for me
 
 e|---------------------|---------------------|
 B|---------------------|---------------------|
 G|---------------------|---------------------|
 D|-----2-0--------0----|-----2-0--------0----|
 A|----------0-0h2------|----------0-0h2------|
 E|-0-0-----------------|-0-0-----------------|
 PM------------------------------------------

[Cborus] Guitar 1
[A]One of them is [Am]sitting on the wrong coast
[E]One awaits an [C#m7]answer by return post
[F#]Waiting, [A]waiting (waiting)
 
 e|---------------------|---------------------|---------------------|---------------------|
 B|---------------------|---------------------|---------------------|---------------------|
 G|---------------------|---------------------|---------------------|---------------------|
 D|---2-0--------0------|-----2-0--------0----|-----2-0-------0-----|-----2-0-------0-----|
 A|--------0-0h2--------|----------0-0h2------|---------0-0h2-------|---------0-0h2-------|
 E|---------------------|-0-0-----------------|-0-0-----------------|-0-0-----------------|
 PM-------------------------------------------------------------------------------------

[Verse 3] Guitar 1
[E]Try to remember how long it's been
[A]There was more to us than [E]paper and pen
[A]Think how easy it [F]is to conceal
 
 e|---------------------|---------------------|
 B|---------------------|---------------------|
 G|---------------------|---------------------|
 D|-----2-0--------0----|-----2-0--------0----|
 A|----------0-0h2------|----------0-0h2------|
 E|-0-0-----------------|-0-0-----------------|
 PM------------------------------------------

[Verse 4] Guitar 1
[E]And I know when we're together again
[A]We'll be strangers for an [E]hour and then
[A]We'll have to figure out if [F]this thing is real
 
 e|---------------------|---------------------|
 B|---------------------|---------------------|
 G|---------------------|---------------------|
 D|-----2-0--------0----|-----2-0--------0----|
 A|----------0-0h2------|----------0-0h2------|
 E|-0-0-----------------|-0-0-----------------|
 PM------------------------------------------

[Cborus] Guitar 1
[A]One of them is [Am]sitting on the wrong coast
[E]One awaits an [C#m7]answer by return post
[F#]Waiting, [A]waiting (waiting)
[Bridge] Guitar 1
 
 e|---------------------|---------------------|-----0~--------------|-----0~-0~-0~--------|
 B|---------------------|---------------------|-----0~--------------|-----0~-3~-0~--------|
 G|---------------------|---------------------|-----1~--------------|-----1~-1~-1~--------|
 D|---2-0--------0------|-----2-0--------0----|-----2~--------------|-----2~--------------|
 A|--------0-0h2--------|----------0-0h2------|---------------------|---------------------|
 E|---------------------|-0-0-----------------|-2p0~----------------|-2p0~----------------|
 e|--0~-----------------|---0~-0~-0~----------|-2--2---2--2--2------|-5--5---5--5--5------|
 B|--2~-----------------|---0~-3~-0~----------|-2--2---2--2--2------|-5--5---5--5--5------|
 G|--2~-----------------|---1~-1~-1~----------|-3--3---3--3--3------|-6--6---6--6--6------|
 D|--2~-----------------|---2~----------------|-4--4---4--4--4------|-7--7---7--7--7------|
 A|-0~------------------|---------------------|-4--4---4--4--4------|-7--7---7--7--7------|
 E|---------------------|-0~------------------|-2--2---2--2--2------|-5--5---5--5--5------|
 e|---0~----------------|------0~-0~-0~-------|----0~---------------|-----0~-0~-0~--------|
 B|---0~----------------|------0~-3~-0~-------|----2~---------------|-----0~-3~-0~--------|
 G|---1~----------------|------1~-1~-1~-------|----2~---------------|-----1~-1~-1~--------|
 D|---2~----------------|------2~-------------|----2~---------------|-----2~--------------|
 A|---------------------|---------------------|-2p0~----------------|---------------------|
 E|-0~------------------|-2p0~----------------|---------------------|-2p0~----------------|

Guitar 1 Natural Harmonics
 
 e|-2--2---2--2--2------|-5--5---5--5--5------|------3/4--3-4-------|----12??---12-??-------|
 B|-2--2---2--2--2------|-5--5---5--5--5------|------2/3--2-3-------|----12-??-??---------??-|
 G|-3--3---3--3--3------|-6--6---6--6--6------|---------------------|---------------------|
 D|-4--4---4--4--4------|-7--7---7--7--7------|---------------------|---------------------|
 A|-4--4---4--4--4------|-7--7---7--7--7------|---------------------|---------------------|
 E|-2--2---2--2--2------|-5--5---5--5--5------|---------------------|---------------------|

Guitar 2
 
 e|---------------------|---------------------|
 B|---------------------|---------------------|
 G|---------------------|---------------------|
 D|-----2-0-------------|-----2-0-------------|
 A|----------0----------|----------0----------|
 E|---0-----------------|---0-----------------|
 PM------------------------------------------

Guitar 2
 
 e|---------------------|---------------------|
 B|---------------------|---------------------|
 G|---------------------|---------------------|
 D|-----2-0-------------|-----2-0-------------|
 A|----------0----------|----------0----------|
 E|---0-----------------|---0-----------------|
 PM------------------------------------------

[Verse 5] Guitar 1
[E]Cold and wet and rainin' all night
[A]There's a letter I??v[E]e gotta write
[A]Somethin' better is [F]waiting for me[E]
[Cborus] Guitar 1
[A]One of them is [Am]sitting on the East coast
[E]One awaits an [C#m7]answer by return post
[F#]Waiting, [A]waiting (waiting)
 
 e|---------------------|---------------------|
 B|---------------------|---------------------|
 G|---------------------|---------------------|
 D|-----2-0--------0----|-----2-0--------0----|
 A|----------0-0h2------|----------0-0h2------|
 E|-0-0-----------------|-0-0-----------------|
 PM------------------------------------------

[A]Take a drink and [Am]staring out the window
[E]Wondering how [C#m7]long this can continue
[F#]Waiting, [A]waiting
[Outro] Guitar 1
 
 e|-----0~--------------|-----0~-0~-0~--------|-----0~--------------|-----0~-0~-0~--------|
 B|-----0~--------------|-----0~-3~-0~--------|-----0~--------------|-----0~-3~-0~--------|
 G|-----1~--------------|-----1~-1~-1---------|-----1~--------------|-----1~-1~-1~--------|
 D|-----2~--------------|-----2~--------------|-----2~--------------|-----2~--------------|
 A|---------------------|---------------------|---------------------|---------------------|
 E|-2p0~----------------|-2p0~----------------|-2p0~----------------|-2p0~----------------|
 e|-----0~--------------|---0~-0~-0~----------|-----0~--------------|-----0~--------------|
 B|-----0~--------------|---0~-3~-0~----------|-----0~--------------|-----0~--------------|
 G|-----1~--------------|---1~-1~-1~----------|-----1~--------------|-----1~-4-4----------|
 D|-----2~--------------|---2~----------------|-----2~--------------|-----2~-2-2----------|
 A|---------------------|---------------------|---------------------|---------------------|
 E|-2p0~----------------|-0~------------------|---0~----------------|-2p0~----------------|
 e|---------------------|---------------------|---------------------|-----------------0.--|
 B|---------------------|------------3-3/5----|-3-3\2-0~--3-3/5-----|-3-3\2-0~--3-3/5-5.--|
 G|-4-2-x-4-x--2-2------|-4-2-x-4-x--2-2/4----|-2-2\0-0~--2-2/4-----|-2-2\0-0~--2??2/4-----|
 D|-2-0-x-2-x--0-0------|-2-0-x-2-x-----------|---------------------|---------------------|
 A|---------------------|---------------------|---------------------|---------------------|
 E|---------------------|---------------------|---------------------|---------------------|

Guitar 1
 
 e|---------------------|---------------------|---------------------|---------------------|
 B|-3-3/2--3-3\5--------|---------------------|-3-3/5--3-3\2--------|-3-3/5---------------|
 G|-2-2/0--2-2\4--------|---------------------|-2-2/4--2-2\0--------|-2-2/4---------------|
 D|---------------------|---------------------|---------------------|---------------------|
 A|---------------------|---------------------|---------------------|---------------------|
 E|---------------------|---------------------|---------------------|---------------------|

Guitar 2
 
 e|---------------------|---------------------|---------------------|---------------------|
 B|---------------------|-5-5-5--5-5--5-5-----|-5-5-5--5-5--5-5-----|-5-5-5--5-5--5-5-----|
 G|---------------------|-4-4-4--4-4--4-4-----|-4-4-4--4-4--4-4-----|-4-4-4--4-4--4-4-----|
 D|---------------------|-2-2-2--2-2--2-2-----|-2-2-2--2-2--2-2-----|-2-2-2--2-2--2-2-----|
 A|---------------------|---------------------|---------------------|---------------------|
 E|---------------------|---------------------|---------------------|---------------------|

Guitar 1
 
 e|---------------------|---------------------|---------------------|---------------------|
 B|-3-3/5---------------|---------------------|-3-3/5---------------|---------------------|
 G|-2-2/4---------------|---------------------|-2-2/4---------------|---------------------|
 D|---------------------|---------------------|---------------------|---------------------|
 A|---------------------|---------------------|---------------------|---------------------|
 E|---------------------|---------------------|---------------------|---------------------|

Guitar 2
 
 e|---------------------|---------------------|---------------------|---------------------|
 B|-5-5-5--5-5--5-5-----|-5-5-5--5-5--5-5-----|-5-5-5--5-5--5-5-----|-5-5-5--5-5--5-5-----|
 G|-4-4-4--4-4--4-4-----|-4-4-4--4-4--4-4-----|-4-4-4--4-4--4-4-----|-4-4-4--4-4--4-4-----|
 D|-2-2-2--2-2--2-2-----|-2-2-2--2-2--2-2-----|-2-2-2--2-2--2-2-----|-2-2-2--2-2--2-2-----|
 A|---------------------|---------------------|---------------------|---------------------|
 E|---------------------|---------------------|---------------------|---------------------|

Guitar 1
 
 e|---------------------|---------------------|---------------------|---------------------|
 B|-3-3/5---------------|---------------------|-3-3/5---------------|---------------------|
 G|-2-2/4---------------|---------------------|-2-2/4---------------|---------------------|
 D|---------------------|---------------------|---------------------|---------------------|
 A|---------------------|---------------------|---------------------|---------------------|
 E|---------------------|---------------------|---------------------|---------------------|

Guitar 2
 
 e|---------------------|---------------------|---------------------|---------------------|
 B|-5-5-5--5-5--5-5-----|-5-5-5--5-5--5-5-----|-5-5-5--5-5--5-5-----|-5-5-5--5-5--5-5-----|
 G|-4-4-4--4-4--4-4-----|-4-4-4--4-4--4-4-----|-4-4-4--4-4--4-4-----|-4-4-4--4-4--4-4-----|
 D|-2-2-2--2-2--2-2-----|-2-2-2--2-2--2-2-----|-2-2-2--2-2--2-2-----|-2-2-2--2-2--2-2-----|
 A|---------------------|---------------------|---------------------|---------------------|
 E|---------------------|---------------------|---------------------|---------------------| 


Important: The song above is NOT stored on the Chordie server. The original song is hosted at www.azchords.com. Chordie works as a search engine and provides on-the-fly formatting. Chordie does not index songs against artists'/composers' will. To remove this song please click here.

Text color:
Chord color:
Chord grids: 
Font size:    
Page size: 

A A7 Am C#m7 E E7 F F#
Rate #1 of 4 versions

Jango Player

Login - add to songbook

SHARE PAGE  



You need to log in to post comments