Guitar Tabs, Chords and Lyrics
Update 25:10. 13:00. Site is back up running again. Songbooks are recovered. Woring on getting search back up..


Stealing Rosemary  The Bangles

[Intro] 
Guitar 2 2/4
 
 e|--1-0-0h|1---------|-1-0-0h|1--------|-1-1---111--|------------|-1-1-111---|--------|
 B|--------|--3??1-1h3-|-------|---3-1---|-3-3??--333--|-----------??|-3-3-333---|--------|
 G|--------|----------|-------|-------2-|-2-2??--222--|-----------??|-2-2-222---|--------|
 D|-0~-----|----------|-------|---------|------------|------------|-----------|--------|
 A|--------|----------|-------|---------|------------|------------|-----------|--------|
 E|--------|----------|-------|---------|------------|------------|-----------|--------|

Guitar 1
 
 e|--------|----------|-------|---------|------------|------------|-----------|--------|
 B|--6-5-5h|6---------|--6-5-6|---------|------------|------------|-----------|--------|
 G|--------|--5---5h7-|-------|-5/7-5---|----7.------|-----7.---7.|-----------|--------|
 D|--------|----------|-------|-------7-|--7---------|---7----7---|-----------|--------|
 A|5-------|----5-----|5------|---------|5-----------|-5----5-----|-----------|--------|
 E|--------|----------|-------|---------|------------|------------|-----------|--------|

If you
[Verse 1] 
Guitar 1 Out
Guitar 2
 
 e|----1-1??-111-|------|--1-1??-111--|--555--|--1-1??-111--|-----|--1-1---111??-|--555--|
 B|----3-3??-333-|------|--3-3??-333--|--666--|--3-3??-333--|-----|--3-3---333??-|--666--|
 G|----2-2??-222-|------|--2-2??-222--|--777--|--2-2??-222--|-----|--2-2---222??-|--777--|
 D|-------------|--R---|------------|-------|------------|--R--|-------------|-------|
 A|-------------|------|------------|-------|------------|-----|-------------|-------|
 E|-------------|------|------------|-------|------------|-----|-------------|-------|

need me, I??ll be here On my knees, on my knees
Guitar 1
 
 e|--------|----------|--------|---------|-------|----------|--------|---------|
 B|--------|----------|--------|---------|-------|----------|--------|---------|
 G|-----7.-|----------|-----7.-|-----7.--|-----7.|----------|-----7.-|-----7.--|
 D|---7----|----------|---7----|---7-----|---7---|----------|---7----|---7-----|
 A|-5------|----------|-5------|-5-------|-5-----|----------|-5------|-5-------|
 E|--------|----------|--------|---------|-------|----------|--------|---------|

Guitar 2
 
 e|-1-0-0h|1----------|--1-0-0h|1--------|-1-0-0h|1---------|-1-0-0h|1---------|
 B|-------|--3-1---3--|--------|--3-1----|-------|--3-1---3-|-------|--3-1-----|
 G|-------|------2----|--------|------2--|-------|------2---|-------|------2---|
 D|-------|-----------|--------|---------|-------|----------|-------|----------|
 A|-------|-----------|--------|---------|-------|----------|-------|----------|
 E|-------|-----------|--------|---------|-------|----------|-------|----------|

In the garden where the growing long....
neighbors light
[Cborus] 
[C]Stealing [G]Rosema-[Dm]ry [Am]for [Em]you, [Bb]my
[Post-cborus] 
Guitar 1
 
 e|--------|----------|-------|---------|
 B|--6-5-5h|6---------|--6-5-6|---------|
 G|--------|--5---5h7-|-------|-5/7-5---|
 D|--------|----------|-------|-------7-|
 A|5-------|----5-----|5------|---------|
 E|--------|----------|-------|---------|

Guitar 2
 
 e|--1-0-0h|1---------|-1-0-0h|1--------|
 B|--------|--3-1-1h3-|-------|--3-1----|
 G|--------|----------|-------|------2--|
 D|--------|----------|-------|---------|
 A|--------|----------|-------|---------|
 E|--------|----------|-------|---------|

Love... It's the
[Verse 2] 
Guitar 1 Out
Guitar 2
 
 e|----1-1??-111-|----------|--1-1??-111--|--555--|--1-1??-111--|-----|--1-1---111??-|--555--|
 B|----3-3??-333-|----------|--3-3??-333--|--666--|--3-3??-333--|-----|--3-3---333??-|--666--|
 G|----2-2??-222-|----------|--2-2??-222--|--777--|--2-2??-222--|-----|--2-2---222??-|--777--|
 D|-------------|-----R----|------------|-------|------------|--R--|-------------|-------|
 A|-------------|----------|------------|-------|------------|-----|-------------|-------|
 E|-------------|----------|------------|-------|------------|-----|-------------|-------|

tiny lies I tell For you to you to please
please,
Guitar 1
 
 e|-------|-----------|--------|---------|-------|----------|--------|---------|
 B|-------|-----------|--------|---------|-------|----------|--------|---------|
 G|-----7.|-----------|-----7.-|-----7.--|-----7.|----------|-----7.-|-----7.--|
 D|---7---|-----------|---7----|---7-----|---7---|----------|---7----|---7-----|
 A|-5-----|-----------|-5------|-5-------|-5-----|----------|-5------|-5-------|
 E|-------|-----------|--------|---------|-------|----------|--------|---------|

Guitar 2
 
 e|-1-0-0h|1----------|--1-0-0h|1--------|-1-0-0h|1---------|-1-0-0h|1---------|
 B|-------|--3-1---3--|--------|--3-1----|-------|--3-1---3-|-------|--3-1-----|
 G|-------|------2----|--------|------2--|-------|------2---|-------|------2---|
 D|-------|-----------|--------|---------|-------|----------|-------|----------|
 A|-------|-----------|--------|---------|-------|----------|-------|----------|
 E|-------|-----------|--------|---------|-------|----------|-------|----------|

Early morning, When the growing Strong.....
in the light is
[Cborus] 
Guitar 2 - play chords
[C]Stealing [G]Rosema-[Dm]ry [Am]for [Em]you, [Bb]my
Guitar 2
 
 e|--1-0-0h|1---------|
 B|--------|--3??1-1h3-|
 G|--------|----------|
 D|--------|----------|
 A|--------|----------|
 E|--------|----------|

Love
I'm [C]stealing [G]Rosema-[Dm]ry[Am] [Em] [Bb] [Dm]
[Solo] 
Guitar 2
 
 e|--------|--------|-----------|------|-------|------|-----|
 B|-1~-1/5??|-5~-5/8-|-8~-8/11-11|-10\8/|10--8\6|/8-6\5|/6~--|
 G|--------|--------|-----------|------|-------|------|-----|
 D|--------|--------|-----------|------|-------|------|-----|
 A|--------|--------|-----------|------|-------|------|-----|
 E|--------|--------|-----------|------|-------|------|-----|
 e|---------|--------|------------|-------|----|----|-----|----|
 B|-5~--6/8??|8--8/10??|10/13-13-13-|-13/15~|~~~~|~~--|--15\|13~-|
 G|---------|--------|------------|-------|----|----|-----|----|
 D|---------|--------|------------|-------|----|----|-----|----|
 A|---------|--------|------------|-------|----|----|-----|----|
 E|---------|--------|------------|-------|----|----|-----|----|

then,
[Overlapping fillers] 
Guitar 1
 
 e|--------|----------|-------|---------|
 B|--6-5-5h|6---------|--6-5-6|---------|
 G|--------|--5---5h7-|-------|-5/7-5---|
 D|--------|----------|-------|-------7-|
 A|5-------|----5-----|5------|---------|
 E|--------|----------|-------|---------|

Guitar 2
 
 e|--1-0-0-|1---------|-1-0-0-|1-------|
 B|--------|--3---1h3-|-------|--3-1---|
 G|--------|----------|-------|------2-|
 D|--------|----------|-------|--------|
 A|--------|----------|-------|--------|
 E|--------|----------|-------|--------|

[Verse 3] 
Guitar 1 and 2 out then:
Guitar 1
 
 e|-------|-----------|--------|---------|-------|----------|--------|---------|
 B|-------|-----------|--------|---------|-------|----------|--------|---------|
 G|-----7.|-----------|-----7.-|-----7.--|-----7.|----------|-----7.-|-----7.--|
 D|---7---|-----------|---7----|---7-----|---7---|----------|---7----|---7-----|
 A|-5-----|-----------|-5------|-5-------|-5-----|----------|-5------|-5-------|
 E|-------|-----------|--------|---------|-------|----------|--------|---------|

Guitar 2
 
 e|-1-0-0h|1----------|--1-0-0h|1--------|-1-0-0h|1---------|-1-0-0h|1---------|
 B|-------|--3-1---3--|--------|--3-1----|-------|--3-1---3-|-------|--3-1-----|
 G|-------|------2----|--------|------2--|-------|------2---|-------|------2---|
 D|-------|-----------|--------|---------|-------|----------|-------|----------|
 A|-------|-----------|--------|---------|-------|----------|-------|----------|
 E|-------|-----------|--------|---------|-------|----------|-------|----------|

Caught running, Home to ming home....
in rain and you co-
[Cborus] 
Guitar 2 - play chords
[C]Stealing [G]Rosema-[Dm]ry [Am]for [Em]you, [Bb]my [Dm]love
I'm [C]stealing [G]Rosema-[Dm]ry [Am]for [Em]you, [Bb]my l[Dm]ove
[C]Stealing [G]Rosema-[Dm]ry[Am] [Em] [Bb]
[Dm]Aah..[Am]aah..[Em]aah..[Bb]aah
[Dm]Aah..[Am]aah..[Em]aah..[Bb]aah

Important: The song above is NOT stored on the Chordie server. The original song is hosted at www.azchords.com. Chordie works as a search engine and provides on-the-fly formatting. Chordie does not index songs against artists'/composers' will. To remove this song please click here.

Text color:
Chord color:
Chord grids: 
Font size:    
Page size: 

Am Bb C Dm Em G
Rate #1 of 1 versions

Login - add to songbook

SHARE PAGE  



You need to log in to post comments