Guitar Tabs, Chords and Lyrics
Server problems seems to be fixed. Chordie has been experiencing problems with songs disappearing. These issues now seems to be fixed, but still verifying the fix. If you find anything strange, please email admin@chordie.com.


Eagle Front  Barefoot Truth

 
 ----------------------------------------------------------------------------

Eagle Front ‚?? Barefoot Truth
 
 ----------------------------------------------------------------------------

Intro:
 
 e|---------------------------------------------------------------------------|
 B|--------5------------------------------------------------------------------|
 G|----------7-5-7-5-7-5------------------------------------------------------|
 D|----5-7----------------7-5-------------------------------------------------|
 A|-/7------------------------7-6-5-------------------------------------------|
 E|---------------------------------8-7-5-------------------------------------|

I got Love[Am] Love for Musi[Dm]c Love[C] Love for Musi[G]c (x8)
(verse 1)
[Am]People can't l[Dm]ive without this [C]People can't move[G] without this
[Am]Can't make lov[Dm]e without this [C] Without musi[G]c
[Am]Can't mak[Dm]e peace[C] without this [G] Rise to your feet beside this
[Am]Can't find lov[Dm]e withi[C]n your soul W[G]ithout music
(Chorus)
[F]Well[Bb] we [Gm]beli[C7]eve that this rhythm will carry us on
[F]As [Bb]the r[Gm]iver [C7]flow and the sun beat down we arrive at common ground
[F]Wel[Bb]l we [Gm]belie[C7]ve in the rhythm and beauty of song
[F]So [Bb]hold [Gm]on h[C7]old on
let your body catch up to us now
(verse 2)
[Am]People can't w[Dm]ake without this [C]People can't shak[G]e without this
[Am]Can't make lov[Dm]e without this [C] Without [G] music
[Am]Can't make pea[Dm]ce without this [C] Rise to your fee[G]t beside this
[Am]Can't find tru[Dm]th within your so[C]ul Without mus[G]ic
(Chorus)
Wacky part between the solo and the ‚??whoa whoa‚?? part
 
 e|------------------------------------------------------|
 B|--------5-----------------------5---------------------|
 G|----------7-5-7-5-----------------7-5-7-5-------------|
 D|----5-7-------------5-7-----5-7-----------7/8\7-5-----|
 A|-/7---------------7------/7-----------------------7---|
 E|------------------------------------------------------|
 e|------------------------------------------------|
 B|--------5----------------------5----------------|
 G|----------7-5-7-5----------------7-5-7-5---7----|
 D|----5-7-------------5-7----5-7-------------6----|
 A|-/7---------------7-----/7-----------------7----|
 E|------------------------------------------------|
 e|------------------------------------------------------------------|
 B|--5----------------------5-------------9-9-9-----5----------------|
 G|----7-5-7-5----------------7-5-7-5-----------------7-5-7-5--------|
 D|--------------5-7----5-7-----------7/8-----------------------5-7--|
 A|------------7-----/7---------------------------------------7------|
 E|------------------------------------------------------------------|
 e|---------------------------------------------------------------------------|
 B|--------5------------------------------------------------------------------|
 G|----------7-5-7-5-7-5------------------------------------------------------|
 D|----5-7----------------7-5-------------------------------------------------|
 A|-/7------------------------7-6-5-------------------------------------------|
 E|---------------------------------8-7-5-------------------------------------|

[Am]Whoa oh [Dm]oh oh o[C]hhhhh o[G]h
[Am]Iv'e[Dm] got[C] so[G] much affection I should start a collection
It provides me protection from the negative energy
Well it floods my desires sets the bar a little higher
Soon i'm dropping in on something that I wouldn't normally
It controls my emotion all my love and devotion
Father sky mother ocean keep on watching over me
Lose your body control i'm just letting you know
it sets a fire in my soul and i'm setting it free (2x)
That is pretty much it. Listen to the recording to chord placement and hits.

Important: The song above is NOT stored on the Chordie server. The original song is hosted at www.azchords.com. Chordie works as a search engine and provides on-the-fly formatting. Chordie does not index songs against artists'/composers' will. To remove this song please click here.

Text color:
Chord color:
Chord grids: 
Font size:    
Page size: 

Am Bb C C7 Dm F G Gm
Rate #2 of 2 versions

Jango Player

Login - add to songbook

SHARE PAGE  



You need to log in to post comments