Guitar Tabs, Chords and Lyrics
Server problems seems to be fixed. Chordie has been experiencing problems with songs disappearing. These issues now seems to be fixed, but still verifying the fix. If you find anything strange, please email admin@chordie.com.


Walk Softly  Barefoot Truth

 
 -------------------------------------------------------------------------------

Walk Softly ‚?? Barefoot Truth
 
 -------------------------------------------------------------------------------

Chords Used
[Gm] [F] [Cm] [Dm] [C7] [D7] [Bb] [Eb] [Db] [Ab] [Gb]  
 
 e|--3------1-------3-----5--------------6---------------4‚??---2-|
 B|--3------1-------4-----6--------------6------8----6---4‚??---2-|
 G|--3------2-------5-----7----3-----5---7------8----6---5‚??---3-|
 D|--5------3-------5-----7----2-----4---8------8----6---6‚??---4-|
 A|--5------3-------3-----5----3-----4---8------6----4---6‚??---4-|
 E|--3------1----------------------------6---------------5‚??---2-|

Opening Lick
 
 e|-----------------------------|
 B|-----------------------------|
 G|--/6\5-3-5-3-5-5-------------|
 D|-----------------------------|
 A|-----------------------------|
 E|-----------------------------| then‚?¶

Gm F C7 D7 x2
 
 e|---------------------|
 B|---------------------|
 G|--/7-3----------33---|
 D|------------3-3------|
 A|------0-3-5--------- |
 E|---------------------|

[Gm]Break down the boarders We've gotta [C7]start this nation a[D7] new
[Gm]We asked the Gov. for a[F]nswers but it's p[C7]lain to see that t[D7]hey ain't
got no clue.
[Gm]They just keep poin[F]ting fingers, you [C7]can pass the blame but we a[D7]ll
all know the truth
An[Gm]d in the end it do[F]esn't even matter cause the[C7] only blames on [D7]me and you.
[Gm]Well can't ya see that they way that we're[F] living,
[C7]it won't easily be [D7]forgiven?
[Gm]Can't you see that the w[F]ay that we're living,
[C7]it won't easily b[D7]e forgiven?
[Gm]The house, the far, the flood in the kitchen, tur[C7]n up the heat
keep me w[D7]arm when we're sleeping.
[Gm]Can't you see that the wa[F]y that we're living won[C7]'t easily be forgi[D7]ven?
 
 e|---------------------|
 B|---------------------|
 G|--/7-3----------33---|
 D|------------3-3------|
 A|------0-3-5--------- |
 E|---------------------|

[Gm]Breakdown the syste[F]m Oh no we just [C7]can't let it[D7] be,
[Gm]I know it's easier to lo[F]ok away but tell me what[C7]'s with all the apa[D7]thy?
[Gm]Well we never wanna t[F]ake our time standing in the che[C7]ck-out
line we just shuffl[D7]e, shuffle, shuffle our feet
[Gm]let me throw my money [F]away
[C7]ain't got the time of day to care its no[D7]t something I really need,
[Gm]so take go on and take it from m[F]e I can't b[C7]ear to see all
the dama[D7]ge that I've endorsed, oh man the
[Gm]Price we'll pay we should've st[F]ayed in our ca[C7]ves and let l[D7]ife just run
its course.
(Pre-Chorus)
[Cm]Oh it's suc[Dm]h a crying sh[G]ame
 
 e|---------------------|
 B|---------------------|
 G|--------------0------|
 D|-2h3p2-2-------------|
 A|---------3-/5--------|
 E|---------------------|

[Cm]All the sh*t we leave be[Dm]hind for those without a[Gm] name
 
 e|----------------------|
 B|----------------------|
 G|-/6-5 3-5-3-----------|
 D|------------5---------|
 A|--------------5/6\5---|
 E|--------------------6-|

[Cm]Oh is i[Dm]t all in vai[Gm]n?
 
 e|---------------------|
 B|---------------------|
 G|--------------0------|
 D|-2h3p2-2-------------|
 A|---------3-/5--------|
 E|---------------------|

[Cm]If we can't learn f[Bb]rom the past we're doo[F]med to repeat it again and again.
(Chorus)
[Eb]And we sa[Bb]y we want no p[F]art of this, then what are we waiting for?
[Eb]Keep on te[Bb]lling me it's a[F]lmost won, it never should've begun.
[Eb]And we say[Bb] we want no par[F]t of this, then what are we waiting for
[Eb]Keep on te[Bb]lling me it's a[Db]lmost wo[Ab]n, [B] [Gb] [Ab] [D7]
then why's it still going on?
[Gm]And now we s[F]ee that our s[C7]hips not comin[D7]g in
[Gm]You'd thing we might have thought of t[F]hat before we c[C7]ast ourselves adri[D7]ft,
[Gm]we keep leaving f[F]ootprints far bi[C7]gger than our fe[D7]et,
[Gm]If we're gonna keep t[F]rampling on, w[C7]ell could we p[D7]lease walk softly?
(Pre Chorus)
(Chorus)

Important: The song above is NOT stored on the Chordie server. The original song is hosted at www.azchords.com. Chordie works as a search engine and provides on-the-fly formatting. Chordie does not index songs against artists'/composers' will. To remove this song please click here.

Text color:
Chord color:
Chord grids: 
Font size:    
Page size: 

Ab B Bb C7 Cm D7 Db Dm Eb F G Gb Gm
Rate #1 of 2 versions

Jango Player

Login - add to songbook

SHARE PAGE  




You need to log in to post comments