Guitar Tabs, Chords and Lyrics
Server problems seems to be fixed. Chordie has been experiencing problems with songs disappearing. These issues now seems to be fixed, but still verifying the fix. If you find anything strange, please email admin@chordie.com.


Shock Me   Baroness

 
 |-----3-3---------|----------------|--------3-3-3-3--------|
 |-1-1-3-3-5-5-1-1-|----1-1-0-0-3-3-|----3-3---------1-1----|
 |-2-2-0-0-5-5-2-2-|----2-2-0-0-2-2-|----2-2---------2-2----|
 |-2-2-0-0-5-5-3-3-|----3-3-2-2-0-0-|----0-0---------2-2----|
 |-0-0-2-2-3-3-3-3-|----3-3-2-2-----|--------3-3-2-2-0-0----|
 |-----3-3-----1-1-|----1-1-0-0-----|-----------------------|

 


 


 Intro Riff


 S S S S S S S S S S S S S S S S S S S S S S S S S S S S S S S S


 

 
 |-----------------------------------------|----------------------------------------------|
 |-----------------------------------------|----------------------------------------------|
 |-----------------------------------------|----------------------------------------------|
 |-----------------------------------------|----------------------------------------------|
 |-0-0-0-0-0-0-0-0-10-12-12-12-12-12-12-12-|-8-8-8-8-10-10-10-10-10-10-10-10-10-10-10-10--|
 |-----------------------------------------|----------------------------------------------|

 


 


 S S S S S S S S S S S S S S S S S S S S S S S S S S S S S S S S


 

 
 |---------------------------------|---------------------------------|
 |---------------------------------|---------------------------------|
 |---------------------------------|---------------------------------|
 |---------------------------------|---------------------------------|
 |-7-7-7-7-8-8-8-8-8-8-8-8-8-8-8-8-|-3-3-3-3-5-5-5-5-5-5-5-5-5-5-3-3-|
 |---------------------------------|---------------------------------|

 


 


 Verse 1 (for second verse, play Intro Riff)


 S S S S S S S S S S S S S S S S S S S S S S S S S S S S S S S S


 

 
 ||----------------------------------|----------------------------------|
 ||o---------------------------------|----------------------------------|
 ||------------------7-9-9-9-9-9-9-9-|-5-5-5-5-7-7-7-7-7-7-7-7-7-7-7-7--|
 ||----------------------------------|----------------------------------|
 ||o-0-0-0-0-0-0-0-0-----------------|----------------------------------|
 ||----------------------------------|----------------------------------|

 


 


 S S S S S S S S S S S S S S S S S S S S S S S S S S S S S S S S


 

 
 |---------------------------------|---------------------------------|
 |---------------------------------|---------------------------------|
 |-4-4-4-4-5-5-5-5-5-5-5-5-5-5-5-5-|---------------------------------|
 |---------------------------------|-5-5-5-5-7-7-7-7-7-7-7-7-7-7-5-5-|
 |---------------------------------|---------------------------------|
 |---------------------------------|---------------------------------|

 


 


 S S S S S S S S S S S S S S S S S S S S S S S S S S S S S S S S


 

 
 |---------------------------------|---------------------------------|
 |---------------------------------|---------------------------------|
 |-----------------7-9-9-9-9-9-9-9-|-5-5-5-5-7-7-7-7-7-7-7-7-7-7-7-7-|
 |---------------------------------|---------------------------------|
 |-0-0-0-0-0-0-0-0-----------------|---------------------------------|
 |---------------------------------|---------------------------------|

 


 


 1.


 S S S S S S S S S S S S S S S S S S S S S S S S S S S S S S S S


 

 
 |---------------------------------|----------------------------------------------||
 |---------------------------------|---------------------------------------------o||
 |-4-4-4-4-5-5-5-5-5-5-5-5-5-5-5-5-|-9-9-9-9-10-10-10-10-10-10-10-10-10-10-10-10--||
 |---------------------------------|----------------------------------------------||
 |---------------------------------|---------------------------------------------o||
 |---------------------------------|----------------------------------------------||

 


 


 2.


 S S S S S S S S S S S S S S E


 

 
 |-----------------------------------------|
 |---------------------------------------1-|
 |-9-9-9-9-10-10-10-10-10-10-10-10-10-10-2-|
 |---------------------------------------2-|
 |---------------------------------------0-|
 |-----------------------------------------|

 


 


 Chorus


 Q. E Q. E Q. E H +Q. E Q. E Q. E H


 

 
 ||----------------|-------------|-------------------|--------------|
 ||o-1----3-3----5-|-5----1-1----|-(1)---------------|--------------|
 ||--2----0-0----5-|-5----2-2----|-(2)---10-10-----9-|--9----7-7----|
 ||--2----0-0----5-|-5----3-3----|-(3)---10-10----10-|-10----7-7----|
 ||o-0----2-2----3-|-3----3-3----|-(3)----8--8-----7-|--7----5-5----|
 ||-------3-3------|------1-1----|-(1)---------------|--------------|

 


 


 +Q. E Q. E Q. E Q. E H. +E E


 

 
 |----------------|---------------|----------------||
 |----------------|-------------1-|-1-----(1)--1--o||
 |-(7)---7-7----5-|-5----4-4----2-|-2-----(2)--2---||
 |-(7)---7-7----5-|-5----5-5----2-|-2-----(2)--2---||
 |-(5)---5-5----3-|-3----2-2----0-|-0-----(0)--0--o||
 |----------------|---------------|----------------||

 


 


 Bridge


 E. S E. S E. S S S E +S E S E. S E. S S S E


 

 
 |--------------------------|--------------------------------|
 |--------------------------|--------------------------------|
 |--------------------------|--------------------------------|
 |--------------------------|--------------------------10----|
 |-0--0-12--12-0--0-12-0-12-|-(12)-0-0-12--12-0--10-12----12-|
 |--------------------------|--------------------------------|

 


 


 E. S E. S E. S S S E +S E S E. S S S S S S S S S


 

 
 |--------------------------|----------------------------------------|
 |--------------------------|----------------------------------------|
 |--------------------------|----------------------------------------|
 |--------------------------|-----------------------10---------10S12-|
 |-0--0-12--12-0--0-12-0-12-|-(12)-0-0-12--12-10h12----0h10h12-------|
 |--------------------------|----------------------------------------|

 


 


 Q E. S E. S S S E +S E S E. S E. S S S E


 

 
 |-------------------------|--------------------------------|
 |-------------------------|--------------------------------|
 |-------------------------|--------------------------------|
 |-14----------------------|--------------------------10----|
 |-----12--12-0--0-12-0-12-|-(12)-0-0-12--12-0--10-12----12-|
 |-------------------------|--------------------------------|

 


 


 E. S E. S E. S S S E +S E S E. S S S S S S S S S


 

 
 |--------------------------|----------------------------------------|
 |--------------------------|----------------------------------------|
 |--------------------------|----------------------------------------|
 |--------------------------|-----------------------10---------10S12-|
 |-0--0-12--12-0--0-12-0-12-|-(12)-0-0-12--12-10h12----0h10h12-------|
 |--------------------------|----------------------------------------|

 


 


 Q H. +W E. E. H +E +W


 

 
 |-------------|------------|----------------|--------|
 |-------------|------------|----------------|--------|
 |-----2-------|-(2)--------|-2--2--2----(2)-|-(2)----|
 |-14--2-------|-(2)--------|-2--2--2----(2)-|-(2)----|
 |-----0-------|-(0)--------|-0--0--0----(0)-|-(0)----|
 |-------------|------------|----------------|--------|

 


 


 E. E. H E E. E. H E E. E. H E E. E. H E


 

 
 |--------------|--------------|-----------------|------------------|
 |--------------|--------------|-----------------|------------------|
 |--------------|-7--7--7------|-12--12--12------|-14--14--14-------|
 |-3--2--2------|-5--5--5------|-10--10--10------|-12--12--12-------|
 |--------------|--------------|-----------------|------------------|
 |--------------|--------------|-----------------|------------------|

 


 


 E. E. H E E. E. H E E. E. H E E. E. H E


 

 
 |--------------|--------------|-----------------|------------------|
 |--------------|--------------|-----------------|------------------|
 |-2--2--2------|-7--7--7------|-12--12--12------|-14--14--14-------|
 |-2--2--2------|-5--5--5------|-10--10--10------|-12--12--12-------|
 |-0--0--0------|--------------|-----------------|------------------|
 |--------------|--------------|-----------------|------------------|

 


 


 Solo


 Q Q Q S S S S Q S S S S H +H E E. S S S Q S S S S Q S S S S


 

 
 |-------------------------|-------------------|---------------5-----|----------------------------|
 |----8b10--8b10----10-8---|-8----10-8---------|-----------------8-5-|-8----5---------------------|
 |-----------------------9-|-----------9-------|-----------7b9-------|--------7-5-7----7b9r7-5----|
 |-------------------------|-------------10----|-(10)----------------|----------------------------|
 |-------------------------|-------------------|---------------------|----------------------------|
 |-------------------------|-------------------|---------------------|----------------------------|

 


 


 H E E S S S S Q. S S Q. S S W


 

 
 |------------------|-------------------|------|
 |--------6-6-5---5-|-------------------|------|
 |-7------------7---|-7----5---5--------|------|
 |------------------|--------7------7-5-|-7----|
 |------------------|-------------------|------|
 |------------------|-------------------|------|

 


 


 Q Q Q S S S S Q S S S S H +E S S S S S S Q. E Q. S S H


 

 
 |-------------------------|-------------------|---------------------------|----------------|
 |----8b10--8b10----10-8---|-8----10-8---------|-------------------------8-|----------------|
 |-----------------------9-|-----------9-------|-----------7-9-7-9-7b9-----|-7b9---7-5-7----|
 |-------------------------|-------------10----|-(10)-7-10-----------------|----------------|
 |-------------------------|-------------------|---------------------------|----------------|
 |-------------------------|-------------------|---------------------------|----------------|

 


 


 +E E S S S S H +E S S Q. S S Q +W


 

 
 |--------------------|---------------------|--------|
 |-----6-6-5---5------|---------------------|--------|
 |-(7)-------7---7----|-(7)-5---5-----------|--------|
 |--------------------|-------7------7-5-7--|-(7)----|
 |--------------------|---------------------|--------|
 |--------------------|---------------------|--------| 


Important: The song above is NOT stored on the Chordie server. The original song is hosted at www.azchords.com. Chordie works as a search engine and provides on-the-fly formatting. Chordie does not index songs against artists'/composers' will. To remove this song please click here.

This song is displayed as text-only. Transposing and tuning is only available for chordpro-songs.
Rate #1 of 1 versions

Jango Player

Login - add to songbook

SHARE PAGE  



You need to log in to post comments