Guitar Tabs, Chords and Lyrics
Server problems seems to be fixed. Chordie has been experiencing problems with songs disappearing. These issues now seems to be fixed, but still verifying the fix. If you find anything strange, please email admin@chordie.com.


Wailing Wintry Wind  Baroness

Baroness
Red Album
Tune:A# F A# D# G C
Awesome album by an awesome band. I wish someone would tab some more of their songs.
Starts at 2:23
Guitar 1
E E E E E E E E E E S S E
 
 C ||-----------0-----------------0-----------|
 G ||--------6-----6-----------6--------------|
 D#||-----------------7-----5-----------------|
 A#||-----7--------------6-----------6s-7s-6--|
 F ||--5--------------------------------------|
 A#||-----------------------------------------|

[E] [E] [E] [E] [E] [E] [E] [E] [E] [E] [E] [E]  
 
 -----------0-----------------0--------|
 --------4-----4-----------3-----3-----|
 -----5-----------5-----4-----------4--|
 --3-----------------3-----------------|
 --------------------------------------|
 --------------------------------------|

E E E E E E E E E E S S E
 
 -----------0-----------------0-----------|
 --------6-----6-----------6--------------|
 -----------------7-----5-----------------|
 -----7--------------6-----------6s-7s-6--|
 --5--------------------------------------|
 -----------------------------------------|

E E E E E E E E E E Q E E E E E E E E E E E E
 
 -----------0-----------------0---------|-----------0-----------------------|
 --------4-----4-----------3-----3br----|--------6-----6-----------6--8-----|
 -----5-----------5-----4---------------|-----------------7-----7-----------|
 --3-----------------3------------------|-----7--------------5-----------5--7
 ---------------------------------------|--5--------------------------------|
 ---------------------------------------|-----------------------------------|

[E] [E] [E] [E] [E] [E] [E] [E] [E] [E] [E] [E]  
 
 --------3-----3--------------0--------|
 -----5-----6-----5--------3-----3-----|
 --3--------------------2-----------2--|
 --------------------3-----------------|
 --------------------------------------|
 --------------------------------------|

E E E E E E E E E E S S E
 
 -----------0-----------------0-----------|
 --------6-----6-----------6--------------|
 -----------------7-----5-----------------|
 -----7--------------6-----------6s-7s-6--|
 --5--------------------------------------|
 -----------------------------------------|

[E] [E] [E] [E] [E] [E] [E] [E] [E] [E] [E] [E]  
 
 -----------0-----------------0--------|
 --------4-----4-----------3-----3-----|
 -----5-----------5-----4-----------4--|
 --3-----------------3-----------------|
 --------------------------------------|
 --------------------------------------|

E E E E E E E E E E S S E
 
 -----------0-----------------0-----------|
 --------6-----6-----------6--------------|
 -----------------7-----5-----------------|
 -----7--------------6-----------6s-7s-6--|
 --5--------------------------------------|
 -----------------------------------------|

E E E E E E E E E E Q E E E E E E E E E E E E
 
 -----------0-----------------0---------|-----------0-----------------------|
 --------4-----4-----------3-----3br----|--------6-----6-----------6--8-----|
 -----5-----------5-----4---------------|-----------------7-----7-----------|
 --3-----------------3------------------|-----7--------------5-----------5--7
 ---------------------------------------|--5--------------------------------|
 ---------------------------------------|-----------------------------------|

E E E E E E Q. E S S S S
 
 --------------------10--13b------13br--10----13----|
 -------------9--12------------------------13----13-|
 -----/7--10----------------------------------------|
 --8------------------------------------------------|
 ---------------------------------------------------|
 ---------------------------------------------------|

E E E E E E E E E E S S E
 
 -----------0-----------------0-----------|
 --------6-----6-----------6--------------|
 -----------------7-----5-----------------|
 -----7--------------6-----------6s-7s-6--|
 --5--------------------------------------|
 -----------------------------------------|

[E] [E] [E] [E] [E] [E] [E] [E] [E] [E] [E] [E]  
 
 -----------0-----------------0--------|
 --------4-----4-----------3-----3-----|
 -----5-----------5-----4-----------4--|
 --3-----------------3-----------------|
 --------------------------------------|
 --------------------------------------|

E E E E E E E E E E S S E
 
 -----------0-----------------0-----------|
 --------6-----6-----------6--------------|
 -----------------7-----5-----------------|
 -----7--------------6-----------6s-7s-6--|
 --5--------------------------------------|
 -----------------------------------------|

E E E E E E E E E E Q E E E E E E E E E E E E
 
 -----------0-----------------0---------|-----------0-----------------------|
 --------4-----4-----------3-----3br----|--------6-----6-----------6--8-----|
 -----5-----------5-----4---------------|-----------------7-----7-----------|
 --3-----------------3------------------|-----7--------------5-----------5--7
 ---------------------------------------|--5--------------------------------|
 ---------------------------------------|-----------------------------------|

[E] [E] [E] [E] [E] [E] [E] [E] [E] [E] [E] [E]  
 
 --------3-----3--------------0--------|
 -----5-----6-----5--------3-----3-----|
 --3--------------------2-----------2--|
 --------------------3-----------------|
 --------------------------------------|
 --------------------------------------|

E E E E E E E E E E S S E
 
 -----------0-----------------0-----------|
 --------6-----6-----------6--------------|
 -----------------7-----5-----------------|
 -----7--------------6-----------6s-7s-6--|
 --5--------------------------------------|
 -----------------------------------------|

[E] [E] [E] [E] [E] [E] [E] [E] [E] [E] [E] [E]  
 
 -----------0-----------------0--------|
 --------4-----4-----------3-----3-----|
 -----5-----------5-----4-----------4--|
 --3-----------------3-----------------|
 --------------------------------------|
 --------------------------------------|

E E E E E E E E E E S S E E E E E E E E E E Q.
 
 -----------0-----------------0-----------|-----------0-----------------0---|
 --------6-----6-----------6--------------|--------4-----4-----------3------|
 -----------------7-----5-----------------|-----5-----------5-----4---------|
 -----7--------------6-----------6s-7s-6--|--3-----------------3------------|
 --5--------------------------------------|---------------------------------|
 -----------------------------------------|---------------------------------|

[E] [E] [E] [E] [E] [E] [E] [E] [E] [E] [E] [E] [E] [E] [E] [E] [E] [E] [E] [E] [E] [E] [E] [E]  
 
 -----------0-----------------8--------|------------------------------------|
 --------6-----6-----------6-----6-----|--------3--------3--------3--------3|
 -----------------7-----7-----------7--|-----2--------0--------3--------3---|
 -----7--------------5-----------------|--3--------2--------5--------4------|
 --5-----------------------------------|-------------------------------------
 --------------------------------------|------------------------------------|

[E] [E] [E] [E] [E] [E] [E] [E] [E] [E] [E] [E] [E] [E] [E] [E] [E] [E] [E] [E] [E] [E] [E] [E]  
 
 -----------0-----------------8--------|------------------------------------|
 --------6-----6-----------6-----6-----|--------3--------3--------3--------3|
 -----------------------------------7--|-----2--------0--------3--------3---|
 -----7-----------7--5-----------------|--3--------2--------5--------4------|
 --5-----------------------------------|------------------------------------|
 --------------------------------------|------------------------------------|

[E] [E] [E] [E] [E] [E] [E] [E] [E] [E] [E] [E] [E] [E] [E] [E] [E] [E] [E] [E] [E] [E] [E] [E]  
 
 -----------0-----------------8--------|------------------------------------|
 --------6-----6-----------6-----6-----|--------3--------3--------3--------3|
 -----------------------------------7--|-----2--------0--------3--------3---|
 -----7-----------7--5-----------------|--3--------2--------5--------4------|
 --5-----------------------------------|------------------------------------|
 --------------------------------------|------------------------------------|

[E] [E] [E] [E] [E] [E] [E] [E] [E] [E] [E] [E] [E] [E] [E] [E] [E] [E] [E] [E] [E] [E] [E] [E]  
 
 -----------0-----------------8--------|------------------------------------|
 --------6-----6-----------6-----6-----|--------3--------3--------3--------3|
 -----------------------------------7--|-----2--------0--------3--------3---|
 -----7-----------7--5-----------------|--3--------2--------5--------4------|
 --5-----------------------------------|------------------------------------|
 --------------------------------------|------------------------------------|

[E] [E] [E] [E] [E] [E] [E] [E] [E] [E] [E] [E] [E] [E] [E] [E] [E] [E] [E] [E] [E] [E] [E] [E]  
 
 -----------0-----------------8--------|------------------------------------|
 --------6-----6-----------6-----6-----|--------3--------3--------3--------3|
 -----------------------------------7--|-----2--------0--------3--------3---|
 -----7-----------7--5-----------------|--3--------2--------5--------4------|
 --5-----------------------------------|------------------------------------|
 --------------------------------------|------------------------------------|

[E] [E] [E] [E] [E] [E] [E] [E] [E] [E] [E] [E] [E] [E] [E] [E] [E] [E] [E] [E] [E] [E] [E] [E]  
 
 -----------0-----------------8--------|------------------------------------|
 --------6-----6-----------6-----6-----|--------3--------3--------3--------3|
 -----------------------------------7--|-----2--------0--------3--------3---|
 -----7-----------7--5-----------------|--3--------2--------5--------4------|
 --5-----------------------------------|------------------------------------|
 --------------------------------------|------------------------------------|

S S S S S S S S S S S S S S S S S S S S S S S S
 
 --5-5-5-5-5-5-5-5-5-5-5-5--8--8--8--8--8--8--8--8--8--8--8--8-|
 --6-6-6-6-6-6-6-6-6-6-6-6-10-10-10-10-10-10-10-10-10-10-10-10-|
 --------------------------------------------------------------|
 --------------------------------------------------------------|
 --------------------------------------------------------------|
 --------------------------------------------------------------|

S S S S S S S S S S S S S S S S S S S S S S S S
 
 --7-7-7-7-7-7-7-7-7-7-7-7-6-6-6-6-6-6-3-3-3-3-3-3-|
 --9-9-9-9-9-9-9-9-9-9-9-9-8-8-8-8-8-8-5-5-5-5-5-5-|
 --------------------------------------------------|
 --------------------------------------------------|
 --------------------------------------------------|
 --------------------------------------------------|

S S S S S S S S S S S S S S S S S S S S S S S S
 
 --5-5-5-5-5-5-5-5-5-5-5-5--8--8--8--8--8--8--8--8--8--8--8--8-|
 --6-6-6-6-6-6-6-6-6-6-6-6-10-10-10-10-10-10-10-10-10-10-10-10-|
 --------------------------------------------------------------|
 --------------------------------------------------------------|
 --------------------------------------------------------------|
 --------------------------------------------------------------|

S S S S S S S S S S S S S S S S S S S S S S S S
 
 --7-7-7-7-7-7-7-7-7-7-7-7-6-6-6-6-6-6-3-3-3-3-3-3-|
 --9-9-9-9-9-9-9-9-9-9-9-9-8-8-8-8-8-8-5-5-5-5-5-5-|
 --------------------------------------------------|
 --------------------------------------------------|
 --------------------------------------------------|
 --------------------------------------------------|

S S S S S S S S S S S S S S S S S S S S S S S S
 
 -----13----13----13----13----13----13----17----17----17----17----17----17-|
 --15----15----15----15----15----15----18----18----18----18----18----18----|
 --------------------------------------------------------------------------|
 --------------------------------------------------------------------------|
 --------------------------------------------------------------------------|
 --------------------------------------------------------------------------|

S S S S S S S S S S S S S S S S S S S S S S S S
 
 -----16----16----16----16----16----16----15----15----15----15----15----15-|
 --18----18----18----18----18----18----18----18----18----17----17----17----|
 --------------------------------------------------------------------------|
 --------------------------------------------------------------------------|
 --------------------------------------------------------------------------|
 --------------------------------------------------------------------------|

S S S S S S S S S S S S S S S S S S S S S S S S
 
 -----13----13----13----13----13----13----17----17----17----17----17----17-|
 --15----15----15----15----15----15----18----18----18----18----18----18----|
 --------------------------------------------------------------------------|
 --------------------------------------------------------------------------|
 --------------------------------------------------------------------------|
 --------------------------------------------------------------------------|

S S S S S S S S S S S S S S S S S S Q
 
 -----16----16----16----16----16----16----15----15----15-15----|
 --18----18----18----18----18----18----18----18----18----17----|
 --------------------------------------------------------------|
 --------------------------------------------------------------|
 --------------------------------------------------------------|
 --------------------------------------------------------------|

E S S S S Q.
 
 --13br--10----13----13b------||
 -----------13----13----------||
 -----------------------------||
 -----------------------------||
 -----------------------------||
 -----------------------------||


Important: The song above is NOT stored on the Chordie server. The original song is hosted at www.azchords.com. Chordie works as a search engine and provides on-the-fly formatting. Chordie does not index songs against artists'/composers' will. To remove this song please click here.

Text color:
Chord color:
Chord grids: 
Font size:    
Page size: 

E
Rate #1 of 1 versions

Login - add to songbook

SHARE PAGE  




You need to log in to post comments