Guitar Tabs, Chords and Lyrics
Server problems seems to be fixed. Chordie has been experiencing problems with songs disappearing. These issues now seems to be fixed, but still verifying the fix. If you find anything strange, please email admin@chordie.com.


Woke Up This Morning  B.B. King

Intro
Q=174
N.C. C
[4/4] Gtr I (Clean El. Gtr.)
E E E E E E E E Q Q H E E E E E E E E E E Q H
 
 |---11---10-8---10---|-8----------|---11---10-8-8-------|-8-8---------|
 |---10--------8-10---|-8----------|---10--------8-10----|-8-8---------|
 |---------------10---|-9----------|---------------10-10-|-9-9---------|
 |--------------------|------------|------------------10-|-------------|
 |--------------------|------------|---------------------|-------------|
 |--------------------|------------|---------------------|-------------|

E a Q E E E E E [F]E E Q H E a Q E E E E E [C]E E Q H
 
 |---5s12--10-8---------|-------------|---5s11--10-8---------|-8-8---------|
 |--------------8-------|-7-8---------|--------------8-------|-8-8---------|
 |----------------10----|-7-8---------|----------------10----|-9-9---------|
 |-------------------10-|-------------|-------------------10-|-------------|
 |----------------------|-------------|----------------------|-------------|
 |----------------------|-------------|----------------------|-------------|

E a Q E E E E E [G]E e Q H
 
 |---5s12--10-8---------|--------------|
 |--------------8-10----|-8------------|
 |-------------------10-|---10---------|
 |----------------------|--------------|
 |----------------------|--------------|
 |----------------------|--------------|

E [F]a Q E E E E E [C]E E Q H W
 
 |---8s12--10-8-8-------|-8-8---------|------||
 |--------------8-10----|-8-8---------|------||
 |----------------10----|-9-9---------|------||
 |-------------------10-|-------------|------||
 |----------------------|-------------|------||
 |----------------------|-------------|------||

1st & 2nd Verses
[C]Gtr II (Horns arr. for Gtr.)
E S S E E E E E E E S S E E E E E E E S S E E E E E E
 
 ||----------3-5p3-5p3-|---------3-5p3-5p3-|---------3-5p3-5p3-|
 ||o---1h3s5-----------|---1h3s5-----------|---1h3s5-----------|
 ||--------------------|-------------------|-------------------|
 ||--------------------|-------------------|-------------------|
 ||o-------------------|-------------------|-------------------|
 ||--------------------|-------------------|-------------------|

E S S E E E E E E [F]E S S E E E E E E E S S E E E E E E
 
 |---------3-5p3-5p3-|----------8-10p8-10p8-|----------8-10p8-10p8-|
 |---1h3s5-----------|---6h8s10-------------|---6h8s10-------------|
 |-------------------|----------------------|----------------------|
 |-------------------|----------------------|----------------------|
 |-------------------|----------------------|----------------------|
 |-------------------|----------------------|----------------------|

E S S E E E E E E E S S E E E E E E [G]E S S E E E E E E
 
 |---------3-5p3-5p3-|---------3-5p3-5p3-|-----------10-12p10-12p10-|
 |---1h3s5-----------|---1h3s5-----------|---8h10s12----------------|
 |-------------------|-------------------|--------------------------|
 |-------------------|-------------------|--------------------------|
 |-------------------|-------------------|--------------------------|
 |-------------------|-------------------|--------------------------|

1. 2.
[F]E S S E E E E E E E S S E E E E E E Q Q H Q Q H
 
 |----------8-10p8-10p8-|---------3-5p3-5p3-|-------------||------------||
 |---6h8s10-------------|---1h3s5-----------|-1----------o||-1----------||
 |----------------------|-------------------|-------------||------------||
 |----------------------|-------------------|-------------||------------||
 |----------------------|-------------------|------------o||------------||
 |----------------------|-------------------|-------------||------------||

3rd & 4th Verses
Q=174(8=s8)
[C]Gtrs I, II
Q E E +Q Q Q Q H Q E E +Q Q Q Q H
 
 ||------------------|-------------|----------------|-------------|
 ||o----8-8-(8)------|-8\----------|----8-8-(8)--7--|-8\----------|
 ||-----9-9-(9)---9--|-9\----------|----9-9-(9)--8--|-9\----------|
 ||--------------10--|-------------|----------------|-------------|
 ||o-----------------|-------------|----------------|-------------|
 ||------------------|-------------|----------------|-------------|

[F]Q E E +Q Q Q Q H [C]Q E E +Q Q Q Q H
 
 |----------------|-------------|-----------------|-------------|
 |----8-8-(8)--6--|-8\----------|----8-8-(8)------|-8\----------|
 |----8-8-(8)--7--|-8\----------|----9-9-(9)---9--|-9\----------|
 |----------------|-------------|-------------10--|-------------|
 |----------------|-------------|-----------------|-------------|
 |----------------|-------------|-----------------|-------------|

1.
[G]Q E E +Q Q Q Q H [C]Q E E +Q Q Q Q H
 
 |----------------|------------|----------------|--------------||
 |----6-6-(6)-----|-6----------|----8-8-(8)-----|-8\----------o||
 |----7-7-(7)-----|-7----------|----9-9-(9)-----|-9\-----------||
 |-------------7--|------------|-------------7--|--------------||
 |----------------|------------|----------------|-------------o||
 |----------------|------------|----------------|--------------||

5th Verse
2.
Q E E +Q Q Q Q H [C7]Q E E +Q Q Q Q H
 
 |----------------|-------------||----8-8-(8)--5--|-8\----------|
 |----8-8-(8)-----|-8\----------||----5-5-(5)-----|-5\----------|
 |----9-9-(9)-----|-9\----------||----7-7-(7)-----|-7\----------|
 |-------------7--|-------------||----8-8-(8)-----|-8\----------|
 |----------------|-------------||----------------|-------------|
 |----------------|-------------||----------------|-------------|

Q E E +Q Q Q Q H [F7]Q E E +Q Q Q Q H
 
 |----8-8-(8)--5--|-8\----------|----8-8-(8)------|-8\----------|
 |----5-5-(5)-----|-5\----------|----8-8-(8)--10--|-8\----------|
 |----7-7-(7)-----|-7\----------|----8-8-(8)------|-8\----------|
 |----8-8-(8)-----|-8\----------|----7-7-(7)------|-7\----------|
 |----------------|-------------|-----------------|-------------|
 |----------------|-------------|-----------------|-------------|

Q E E +Q Q Q Q H [G7]Q E E +Q Q
 
 |----8-8-(8)--5--|-8\----------|-----8--8--(8)------|
 |----5-5-(5)-----|-5\----------|----10-10-(10)--10--|
 |----7-7-(7)-----|-7\----------|----10-10-(10)--10--|
 |----8-8-(8)-----|-8\----------|----------------12--|
 |----------------|-------------|--------------------|
 |----------------|-------------|--------------------|

Q Q H [C7]Q E E +Q Q Q Q H
 
 |--8\----------|----8-8-(8)--5--|-8----------*|
 |-10\----------|----5-5-(5)-----|-5----------*|
 |-10\----------|----7-7-(7)-----|-7----------*|
 |--------------|----8-8-(8)-----|-8----------*|
 |--------------|----------------|------------*|
 |--------------|----------------|------------*| 


Important: The song above is NOT stored on the Chordie server. The original song is hosted at www.azchords.com. Chordie works as a search engine and provides on-the-fly formatting. Chordie does not index songs against artists'/composers' will. To remove this song please click here.

Text color:
Chord color:
Chord grids: 
Font size:    
Page size: 

C C7 F F7 G G7
Rate #1 of 2 versions

Login - add to songbook

SHARE PAGE  




You need to log in to post comments