Guitar Tabs, Chords and Lyrics
Server problems seems to be fixed. Chordie has been experiencing problems with songs disappearing. These issues now seems to be fixed, but still verifying the fix. If you find anything strange, please email admin@chordie.com.


Good Vibrations  The Beach Boys

Capo 1
Bass:
[Dm] [C] [Bb] [A]  
 
 e|---------------------------------------------------------------------|
 B|---------------------------------------------------------------------|
 G|---------------------------------------------------------------------|
 D|--7---7-----------5---5-----------3---3-----------2---2--------------|
 A|----5----5-7-8------3----3-5-7------1----1-3-5------0----0-2-4-------|
 E|---------------------------------------------------------------------|

[Dm] [C] [Bb] [A]  
 
 e|---------------------------------------------------------------------|
 B|---------------------------------------------------------------------|
 G|---------------------------------------------------------------------|
 D|--7---7-----------5---5-----------3---3-----------2---2--------------|
 A|---5-----5-7-8-----3-----3-5-7-----1-----1-3-5-----0-----1-0---------|
 E|-------------------------------------------------------------3-1-0---|

[Dm] I, I love the colorful [C]clothes she wears,
And the [Bb]way the sunlight plays upon her [A]hair
[Dm] I hear the sound of a [C]gentle word
On the [Bb]wind that lifts her perfume through the [A]air [C]
Chorus:
[F] [G] [A]  
 
 e|------------------| |-----------------| |-----------------|
 B|------------------| |-----------------| |-----------------|
 G|------------------| |-----------------| |-----------------|
 D|---3-1-0----------| x4 |---5-3-2---------| x2 |---7-5-4---------| x2
 A|-------------1-3--| |-------------3-5-| |-------------5-7-|
 E|-1-------1-3------| |-3-------3-5-----| |-5-------5-7-----|

[F] I'm [Bb]picking up [F]good vi[Bb]brations, [F]she's [Bb]giving me the [F]exci[Bb]tations
[F] I'm [Bb]picking up [F]good vi[Bb]brations, [F]she's [Bb]giving me the [F]exci[Bb]tations
Oom bop bop good vibrations bop bop excitations
[G] I'm [C]picking up [G]good vi[C]brations, [G]she's [C]giving me the [G]exci[C]tations
Oom bop bop good vibrations bop bop excitations
Good good good good vibrations
[A] I'm [D]picking up [A]good vi[D]brations, [A]she's [D]giving me the [A]exci[D]tations
Oom bop bop good vibrations bop bop excitations
Good good good good vibrations
[Dm] Close my eyes, she's somehow [C]closer now
[Bb] Softly smile, I know she must be [A]kind
[Dm] When I look [C]in her eyes
She goes [Bb]with me to a blossom world[A] [C]
Chorus
Exci[A]tations
[A]Ohhh (ooh, my, my, my, what an elation)
I [D]don't know where but she sends me there
Ooh, my, my, my, what an sen[A]sation (ooh, my, my, my, what an elation)
[E] [F#m] [B]  
[E] Gotta keep those lovin' good[F#m] vibrations a [B]happenin' with her
[E] Gotta keep those lovin' good[F#m] vibrations a [B]happenin' with her
[E] Gotta keep those lovin' good[F#m] vibrations a [B]happenin' with her
[E] [F#m] [B]  
[E7] Ahhhhhh
[A] I'm [D]picking up [A]good vi[D]brations, [A]she's [D]giving me the [A]exci[D]tations
[G] I'm [C]picking up [G]good vi[C]brations, [G]she's [C]giving me the [G]exci[C]tations
[F] [Bb] [F] [Bb]  
[F]La da da da da da da da
[G]La da da da da da da da
[A]La da da da da da da da
[G]La da da da da da da da
G5 x8

Important: The song above is NOT stored on the Chordie server. The original song is hosted at www.azchords.com. Chordie works as a search engine and provides on-the-fly formatting. Chordie does not index songs against artists'/composers' will. To remove this song please click here.

Text color:
Chord color:
Chord grids: 
Font size:    
Page size: 

A B Bb C D Dm E E7 F F#m G
Rate #1 of 19 versions

Login - add to songbook

SHARE PAGE  




You need to log in to post comments