Guitar Tabs, Chords and Lyrics
Update 25:10. 13:00. Site is back up running again. Songbooks are recovered. Woring on getting search back up..


Got to Get You Into My Life  The Beatles

 
 ---------------------------------------------------------------------------

Got To Get You Into My Life - The Beatles
 
 ---------------------------------------------------------------------------

Tuning: Standard
The Beatles
Got To Get You Into My Life (1966)
(Lennon/McCartney)
 
 ---------------------------------------------------------------------------

CHORDS
e-B-G-D-A-E
G 3-3-0-0-x-3
F/G 1-1-2-3-x-3
C/G 0-1-0-2-x-3
Bm x-3-4-4-2-x
Bb5+ x-3-3-4-1-x
Bm7/A x-3-2-4-0-x
Bm/Ab x-3-4-4-x-4
C x-1-0-2-3-x
C/B x-1-2-x-2-x
Am7 x-1-0-2-0-x
 
 ---------------------------------------------------------------------------

INTRO
[G] [F/G] [C/G] [G]  
 
 e|----------------|----------------|
 B|----1012----10--|----------------|
 G|--121012--1210--|--10--9---12----|
 D|--12------12----|--10--10--12----|
 A|----------------|----------------|
 E|----------------|----------------|

RIFF
[G] [F/G] [F/G] [C/G] [G]  
 
 e|----------------|----------------|
 B|------0---------|----------------|
 G|--0-2-0---0-2---|----------0-----|
 D|--0-0-----0-3---|--3---2---0-----|
 A|----------------|--3---3---------|
 E|3---------------|----------------|
 ---------------------------------------------------------------------------

SONG
INTRO
| G | F/G C/G G | G | G |
[G] I was alone I took a ride, I didn't know what I would [F/G]find there
[G] Another road where maybe I can see another kind of [F/G]mind there
[Bm]Ooh [Bb5+] then I [Bm7/A]suddenly [Bm/Ab]see you
[Bm]Ooh [Bb5+] did I [Bm7/A]tell you I [Bm/Ab]need you
[C]Every [C/B]single [Am7]day [D]of my [G]life
[G] You didn't run you didn't lie you I wanted just to [F/G]hold you
[G] And had you gone you'd knew in time we meet again for I'd have [F/G]told you
[Bm]Ooh [Bb5+] you were [Bm7/A]meant to be [Bm/Ab]near me
[Bm]Ooh [Bb5+] and I [Bm7/A]want you [Bm/Ab]hear me
[C]Say we'll [C/B]be to[Am7]gether [D]every [G]day
[G]Got to get you into my l[C]ife [D](break)[G]
[G] What can I do? What can I be when I'm with you I wanna [F/G]stay there
[G] If I'm true I'll never leave and if I do I know the [F/G]way there
[Bm]Ooh [Bb5+] then I [Bm7/A]suddenly s[Bm/Ab]ee you
[Bm]Ooh [Bb5+] did I [Bm7/A]tell you I [Bm/Ab]need you
[C]Every [C/B]single [Am7]day [D]of my [G]life
[G]Got to get you into my l[C]ife [D](break)[G]
RIFF
| G | F/G C/G G |
[G]Got to get you into my l[C]ife [D](break)[G]
CODA
I was a[G]lone I took a ride, I didn't know what I would find there (RIFF)
[F/G] Another road where maybe I can [C/G]see a[G]nother kind of mind ther[F/G]e
[C/G]Then su[G]ddenly see you[F/G]
[C/G] Did I [G]tell you I need you[F/G]
[C/G] Every [G]single day [F/G] [C/G] [G]
(fade)

Important: The song above is NOT stored on the Chordie server. The original song is hosted at www.azchords.com. Chordie works as a search engine and provides on-the-fly formatting. Chordie does not index songs against artists'/composers' will. To remove this song please click here.

Text color:
Chord color:
Chord grids: 
Font size:    
Page size: 

Am7 Bb5+ Bm Bm/Ab Bm7/A C C/B C/G D F/G G
Rate #4 of 12 versions

Login - add to songbook

SHARE PAGE  



You need to log in to post comments