Guitar Tabs, Chords and Lyrics
Server problems seems to be fixed. Chordie has been experiencing problems with songs disappearing. These issues now seems to be fixed, but still verifying the fix. If you find anything strange, please email admin@chordie.com.


I'm So Tired  The Beatles

x x 0 2 3 2 [D]0 2 2 1 0 0 [E]x 0 2 2 2 0 [A]2 4 4 2 2 2[F#m]
x x [E+]2 1 1 0 x x [Dm]0 2 3 1
Gtr I (E A D G B E) - 'George Harrison - Electric Guitar'
Gtr II (E A D G B E) - 'John Lennon - Acoustic Guitar'
1st - 3rd Verses
Q=69
$
[A] [G#7]  
[4/4] Gtr II
H E E E E E S S +S S E E S S +S S E
 
 |--------------||--0-0-0-(0)-0-0-4-4-4-(4)-4-4-|
 |--------------||o-2-2-2-(2)-2-2-4-4-4-(4)-4-4-|
 |--------------||--2-2-2-(2)-2-2-5-5-5-(5)-5-5-|
 |--------------||--2-2-2-(2)-2-2-4-4-4-(4)-4-4-|
 |--------------||o-0-0-0-(0)-0-0-6-6-6-(6)-6-6-|
 |--------0-2-4-||----------------4-4-4-(4)-4-4-|

[D]Gtr II[E+]
E S S +S S E E S S +S S E
| | | | | | | | | | | |
[/] [/] [/] [/] [/] [/] [/] [/] [/] [/] [/] [/]  
Gtr I
W
 
 |---------------------------|
 |---------------------------|
 |---------------------------|
 |---------------------------|
 |---------------------------|
 |---------------------------|

[A]E S S +S S E [F#m]E S S +S S E [D]E S S +S S E [E]E S S +S S E
| | | | | | | | | | | | | | | | | | | | | | | |
[/] [/] [/] [/] [/] [/] [/] [/] [/] [/] [/] [/] [/] [/] [/] [/] [/] [/] [/] [/] [/] [/] [/] [/] 
W W
 
 |---------------------------|---------------------------|
 |---------------------------|---------------------------|
 |---------------------------|---------------------------|
 |---------------------------|---------------------------|
 |---------------------------|---------------------------|
 |---------------------------|---------------------------|

1.
[A] [E+] [F#m] [Dm] 
E S S +S S E E S S +S S E [2/4] E S S +S S E [4/4] E S S +S S E E S S +S S E
| | | | | | | | | | | | | | | | | | | | | | | | | | | | | |
[/] [/] [/] [/] [/] [/] [/] [/] [/] [/] [/] [/] [/] [/] [/] [/] [/] [/] [/] [/] [/] [/] [/] [/] [/] [/] [/] [/] [/] [/] 
Gtr I
Q E E Q E E Q E E E E E E E E E E
 
 |--------5------------------|--------------|-5-5----5---5-5-5----5---5--||
 |--------5------------5-----|--------7-----|-6-6----6---6-6-6----6---6-o||
 |--------6------------5-----|--------6-----|-7-7----7---7-7-7----7---7--||
 |--------7------------6-----|--------7-----|-7-7----7---7-7-7----7---7--||
 |---------------------7-----|--------------|-5-5----5---5-5-5----5---5-o||
 |---------------------------|--------------|----------------------------||

2.,D.S.
[A] [E+] [F#m]  
Gtr II[2/4]
E S S +S S E E S S +S S E E S S +S S E
| | | | | | | | | | | | | | | | | |
[/] [/] [/] [/] [/] [/] [/] [/] [/] [/] [/] [/] [/] [/] [/] [/] [/] [/] 
Gtr I
Q E E Q E E Q E E
 
 |--------5------------------|--------2-----|
 |--------5------------5-----|--------2-----|
 |--------6------------5-----|--------2-----|
 |--------7------------6-----|--------------|
 |---------------------7-----|--------------|
 |---------------------------|--------------|

[Dm]  
[4/4] E S S +S S E E S S +S S E
| | | | | | | | | | | |
[/] [/] [/] [/] [/] [/] [/] [/] [/] [/] [/] [/] 
E S S +E E S S E S S E
 
 |------------------------------------------||
 |------------------------------------------||
 |---10-(10)-(10)---(10)--------------------||
 |---10h=12--(12)----12--12p10--------------||
 |-----------------------------12---12p10-8-||
 |------------------------------------------||

|
| Gt
| W
 
 |------------------------------------------||
 |------------------------------------------||
 |------------------------------------------||
 |------------------------------------------||
 |------------------------------------------||
 |------------------------------------------||

Bridge
W W
E E E E E S S E E E E E E E S S E E
 
 |------------------------|------------------------|
 |------------------------|------------------------|
 |-------------9-(9)---9--|-------------9-(9)---9--|
 |-------------9h11--(11)-|-------------9h11--(11)-|
 |-7-7-9-9----------------|-7-7-9-9----------------|
 |-5-5-5-5----------------|-5-5-5-5----------------|

|
|r II
| E E E E E S S E E E E E E E S S E E
 
 |------------------------|------------------------|
 |------------------------|------------------------|
 |-------------9-(9)---9--|-------------9-(9)---9--|
 |-------------9h11--(11)-|-------------9h11--(11)-|
 |-7-7-9-9----------------|-7-7-9-9----------------|
 |-5-5-5-5----------------|-5-5-5-5----------------|

E E E E E S S E E E E E E E S S E E
 
 |--------------------------|--------------------------|
 |--------------------------|--------------------------|
 |---------------9-(9)---9--|---------------9-(9)---9--|
 |---------------9h11--(11)-|---------------9h11--(11)-|
 |-2-2--4--4----------------|-2-2--4--4----------------|
 |-0-0--0--0----------------|-0-0--0--0----------------|

|
| E E E E E S S E E E E E E E S S E E
 
 |--------------------------|--------------------------|
 |--------------------------|--------------------------|
 |---------------9-(9)---9--|---------------9-(9)---9--|
 |-9-9-11-11-----9h11--(11)-|-9-9-11-11-----9h11--(11)-|
 |-7-7--7--7----------------|-7-7--7--7----------------|
 |--------------------------|--------------------------|

To Coda D.S. al Coda
E E E E E E E E E E Q H
 
 |------------------|------------------||
 |------------------|------------------||
 |------------------|------------------||
 |-7-7-9-9-7-7-9-9--|------------------||
 |-5-5-5-5-5-5-5-5--|-7----------------||
 |------------------|-5----------------||

|
| E E E E E E E E E E Q E E E E
 
 |------------------|------------------||
 |------------------|------------------||
 |------------------|------------------||
 |-7-7-9-9-7-7-9-9--|------------------||
 |-5-5-5-5-5-5-5-5--|-7----------------||
 |------------------|-5--------0-2-4---||

Outro
&
E E Q H E E E E E E E E E E Q H
 
 |-------------|-----------------|-------------|
 |-------------|-----------------|-------------|
 |-------------|-----------------|-------------|
 |-------------|-7-7-9-9-7-7-9-9-|-------------|
 |-7-----------|-5-5-5-5-5-5-5-5-|-7-----------|
 |-5-----------|-----------------|-5-----------|

|
| E E Q H E E E E E E E E E E Q H
 
 |-------------|-----------------|-------------|
 |-------------|-----------------|-------------|
 |-------------|-----------------|-------------|
 |-------------|-7-7-9-9-7-7-9-9-|-------------|
 |-7-----------|-5-5-5-5-5-5-5-5-|-7-----------|
 |-5-----------|-----------------|-5-----------|

E E E E E E E E E E Q H
 
 |-----------------|--------------*|
 |-----------------|--------------*|
 |-----------------|--------------*|
 |-7-7-9-9-7-7-9-9-|--------------*|
 |-5-5-5-5-5-5-5-5-|-7------------*|
 |-----------------|-5------------*|

|
| E E E E E E E E H H
 
 |-----------------|--------------*|
 |-----------------|--------------*|
 |-----------------|--------------*|
 |-7-7-9-9-7-7-9-9-|--------------*|
 |-5-5-5-5-5-5-5-5-|-7/-----------*|
 |-----------------|-5/-----------*|


Important: The song above is NOT stored on the Chordie server. The original song is hosted at www.azchords.com. Chordie works as a search engine and provides on-the-fly formatting. Chordie does not index songs against artists'/composers' will. To remove this song please click here.

Text color:
Chord color:
Chord grids: 
Font size:    
Page size: 

A D Dm E E+ F#m G#7
Rate #1 of 6 versions

Jango Player

Login - add to songbook

SHARE PAGE  



You need to log in to post comments