Guitar Tabs, Chords and Lyrics
Major upgrade!! After one year development the new version of Chordie is now online! Please give feedback.


Rock and Roll Music  The Beatles

Pre-Chorus Chorus
Q=166
[E7] [A7]  
[4/4] Gtr I
H E E E E E E Q H E E E E E E E E E E E E E E E E
 
 |--------0-0-0-|-0-----------||------------------|-----------------|
 |--------3-3-3-|-3-----------||o-----------------|-----------------|
 |--------1-1-1-|-1-----------||------------------|-----------------|
 |--------2-2-2-|-2-----------||--2-2-4-2-2-2-4-2-|-2-2-4-2-2-2-4-2-|
 |--------2-2-2-|-2-----------||o-0-0-0-0-0-0-0-0-|-0-0-0-0-0-0-0-0-|
 |--------0-0-0-|-0-----------||------------------|-----------------|

[D7] 
[E] [E] [E] [E] [E] [E] [E] [E] [E] [E] [E] [E] [E] [E] [E] [E] [E] [E] [E] [E] [E] [E] [E] [E] [E] [E] [E] [E] [E] [E] [E] [E]  
 
 |-----------------|-----------------|-----------------|------------------|
 |-----------------|-----------------|-----------------|------------------|
 |-----------------|-----------------|-2-2-4-2-2-2-4-2-|-2-2-4-2-2-2-4-2--|
 |-2-2-4-2-2-2-4-2-|-2-2-4-2-2-2-4-2-|-0-0-0-0-0-0-0-0-|-0-0-0-0-0-0-0-0--|
 |-0-0-0-0-0-0-0-0-|-0-0-0-0-0-0-0-0-|-----------------|------------------|
 |-----------------|-----------------|-----------------|------------------|

[A7] [E7] 
[E] [E] [E] [E] [E] [E] [E] [E] [E] [E] [E] [E] [E] [E] [E] [E] [E] [E] [E] [E] [E] [E] [E] [E] [E] [E] [E] [E] [E] [E] [E] [E]  
 
 |-----------------|-----------------|-----------------|------------------|
 |-----------------|-----------------|-----------------|------------------|
 |-----------------|-----------------|-----------------|------------------|
 |-2-2-4-2-2-2-4-2-|-2-2-4-2-2-2-4-2-|-----------------|------------------|
 |-0-0-0-0-0-0-0-0-|-0-0-0-0-0-0-0-0-|-2-2-4-2-2-2-4-2-|-2-2-4-2-2-2-4-2--|
 |-----------------|-----------------|-0-0-0-0-0-0-0-0-|-0-0-0-0-0-0-0-0--|

1.,2.,3.,4.
E E E E E E E [A7]E E E E E E E E E [E7]E E E E E E E [A7]E E E Q H
 
 |-----------------|-----------------|-----------------|-------------||
 |-----------------|-----------------|-----------------|-------------||
 |-----------------|-----------------|-----------------|-------------||
 |---------------2-|-2-2-4-2-2-2-4-2-|---------------2-|-2-----------||
 |-2-2-2-2-2-2-2-0-|-0-0-0-0-0-0-0-0-|-2-2-2-2-2-2-2-0-|-0-----------||
 |-0-0-0-0-0-0-0---|-----------------|-0-0-0-0-0-0-0---|-------------||

1st - 4th Verses
[E7]H +E E +E E Q E E +E E +Q [A7]Q. E +E E Q Q. E +E E Q
 
 |-0----(0)-0-(0)-0-|-0--0-0-(0)-0-(0)--|-----------------|------------------|
 |-3----(3)-3-(3)-3-|-3--3-3-(3)-3-(3)--|-----------------|------------------|
 |-1----(1)-1-(1)-1-|-1--1-1-(1)-1-(1)--|-----------------|------------------|
 |-2----(2)-2-(2)-2-|-2--2-2-(2)-2-(2)--|--------------2--|--------------2---|
 |-2----(2)-2-(2)-2-|-2--2-2-(2)-2-(2)--|-0----4-(4)-4----|-0----4-(4)-4-----|
 |-0----(0)-0-(0)-0-|-0--0-0-(0)-0-(0)--|-----------------|------------------|

[D7]Q. E +E E Q Q. E +E E Q
 
 |-----------------|-----------------|
 |-----------------|-----------------|
 |--------------2--|--------------2--|
 |-0----4-(4)-4----|-0----4-(4)-4----|
 |-----------------|-----------------|
 |-----------------|-----------------|

5.
Q [E7]E E +E E +E E E E Q H 5x Q [A7]E E Q Q
 
 |----0-0-(0)-0-(0)-0-|-0------------||----------------*|
 |----3-3-(3)-3-(3)-3-|-3-----------o||----------------*|
 |----1-1-(1)-1-(1)-1-|-1------------||----------------*|
 |----2-2-(2)-2-(2)-2-|-2------------||----2-2-2-------*|
 |----2-2-(2)-2-(2)-2-|-2-----------o||----0-0-0-------*|
 |----0-0-(0)-0-(0)-0-|-0------------||----------------*|


Important: The song above is NOT stored on the Chordie server. The original song is hosted at www.azchords.com. Chordie works as a search engine and provides on-the-fly formatting. Chordie does not index songs against artists'/composers' will. To remove this song please click here.

Text color:
Chord color:
Chord grids: 
Font size:    
Page size: 

A7 D7 E E7
Rate #1 of 9 versions

Login - add to songbook

SHARE PAGE  



You need to log in to post comments