Guitar Tabs, Chords and Lyrics
Major upgrade!! After one year development the new version of Chordie is now online! Please give feedback.


The Long and Winding Road  The Beatles

VERSE
[Bm] [G/A] [D] [D/C] [G] 
[4] [+] [1] [+] [2] [+] [3] [+] [4] [+] [1] [+] [2] [+] [3] [+] [4] [+] [1] [+] [2] [+] [3] [+] [4] [+] [1] [+] [2] [+] [3] [+] [4] [+]  
 
 e ----|----------------|----------------|----------------|----------------|
 B --2-|3---2-----------|--3-3---3-3-----|3---3---0-1---0-|------------0---|
 G ----|4-------2-----4-|--4-4---4-4-----|2---2---2-------|----0-------0---|
 D ----|4---------4---5-|--5-5---5-5-----|0-----0---------|--0---0---0---0-|
 A ----|2---------------|----------------|--------3---3---|----------------|
 E ----|----------------|--5-5---5-5-----|----------------|3-------3-------|

[G] [D/F#] [Bm] [Em7] [A7] [C/D] [D7] 
[1] [+] [2] [+] [3] [+] [4] [+] [1] [+] [2] [+] [3] [+] [4] [+] [1] [+] [2] [+] [3] [+] [4] [+] [1] [+] [2] [+] [3] [+] [4] [+]  
 
 e|----------------|----------------|----------------|----0---0---2---|
 B|----0---2-3-----|----3-2---------|0---0---2---2---|1---1---1---1---|
 G|----0---2-----2-|----4---2-------|0---0---0---0---|0---0---0---2---|
 D|--0---0---------|--4-------4---4-|0---0-----2---2-|0-----0---0---0-|
 A|----------------|2-----------2---|2-------0---0---|----------------|
 E|3-------2---2---|----------------|0-----0---------|----------------|

[G] [D/F#] [Bm] [Em7] [A7] [D] 
[1] [+] [2] [+] [3] [+] [4] [+] [1] [+] [2] [+] [3] [+] [4] [+] [1] [+] [2] [+] [3] [+] [4] [+] [1] [+] [2] [+] [3] [+] [4] [+]  
 
 e|3---------------|----------------|----------------|----------------|
 B|0---0---2-3-----|----3-2---------|0---0---2---2---|3---3---3---3---|
 G|0---0---2-----2-|----4---2-------|0---0---0---0---|2---2---2---2---|
 D|0-0---0---------|--4-------4---4-|0---0-----2---2-|0-----0---0---0-|
 A|----------------|2-----------5---|2-------0---0---|----------------|
 E|3-------2---2---|----------------|0-----0---------|----------------|

MIDDLE 8 / SOLO
[D/A] [G] [D/F#] [Em7] [A7] [D/A] [G] [D/F#] [Em7] [A7] 
[1] [+] [2] [+] [3] [+] [4] [+] [1] [+] [2] [+] [3] [+] [4] [+] [1] [+] [2] [+] [3] [+] [4] [+] [1] [+] [2] [+] [3] [+] [4] [+]  
 
 e|----------------|----------------|----------------|----------------|
 B|3---3---0---0---|3---3---0---2---|3---3---0---0---|3---3---0---2---|
 G|2---2---0---0---|2---2---0---0---|2---2---0---0---|2---2---0---0---|
 D|--4---4---0---0-|--4---4---0---2-|--4---4---0---0-|--4---4---0---2-|
 A|0---------------|------------0---|0---------------|------------0---|
 E|--------3-------|2-------0-------|--------3-------|2-------0-------|

CODA
[D] [G/A] [D] 
[1] [+] [2] [+] [3] [+] [4] [+] [1] [+] [2] [+] [3] [+] [4] [+]  
 
 e|----------------|----------------|
 B|3---2-----------|--3-3---3-3-----|3
 G|2-------2-----4-|--4-4---4-4-----|2
 D|0---------4---5-|--5-5---5-5-----|0
 A|----------------|----------------|
 E|----------------|--5-5---5-5-----|
 ---------------------------------------------------------------------------

CHORDS
E-A-D-G-B-e
G/A 5-x-5-4-3-x
D/C x-3-x-2-3-2
Em7 0-2-0-0-0-0
A7 x-0-2-0-2-0
C/D x-x-0-0-1-0
D7 x-x-0-2-1-2
D/F# 3-x-0-2-3-2 (verse)
D/A x-0-4-2-3-2
D/F# 2-5-4-2-3-2 (middle 8)
 
 ---------------------------------------------------------------------------

VERSE
The [Bm]long and winding road [G/A]
That [D]leads [D/C]to your [G]door
[G] Will [D/F#]never disap[Bm]pear
[Em7] I've seen that [A7]road be[C/D]fore[D7]
[G] It [D/F#]always [Bm]leads me here
[Em7] Lead me [A7]to your [D]door
VERSE
The [Bm]wild and windy night [G/A]
That the [D]rain [D/C]washed a[G]way
[G] Has [D/F#]left a [Bm]pool of tears
[Em7] Crying [A7]for the [C/D]day[D7]
[G] Why [D/F#]leave me [Bm]standing here
[Em7] Let me [A7]know the [D]way
MIDDLE 8
[D/A]Many times I've [G]been alone
And [D/F#]many times I've [Em7]cried[A7]
[D/A]Anyway, you'll [G]never know
The [D/F#]many ways I've [Em7]tried[A7]
VERSE
But [Bm]still they lead me back[G/A]
To the [D]long and [D/C]winding [G]road
[G] You [D/F#]left me[Bm] standing here
[Em7] A long long [A7]time a[C/D]go[D7]
[G] Don'[D/F#]t keep [Bm]me waiting here,
[Em7] Lead me [A7]to your [D]door
SOLO
| D/A G | D/F# Em7 A7 |
| D/A G | D/F# Em7 A7 |
VERSE
But [Bm]still they lead me back[G/A]
To the [D]long and [D/C]winding [G]road
[G] You [D/F#]left me[Bm] standing here
[Em7] A long long [A7]time a[C/D]go[D7]
[G] Don'[D/F#]t keep [Bm]me waiting here,
[Em7] Lead me [A7]to your [D]door [G/A] Yeah, yeah, [D]yeah
(= CODA)

Important: The song above is NOT stored on the Chordie server. The original song is hosted at www.azchords.com. Chordie works as a search engine and provides on-the-fly formatting. Chordie does not index songs against artists'/composers' will. To remove this song please click here.

Text color:
Chord color:
Chord grids: 
Font size:    
Page size: 

A7 Bm C/D D D/C D/F# D7 Em7 G
Rate #1 of 15 versions

Login - add to songbook

SHARE PAGE  



You need to log in to post comments