Guitar Tabs, Chords and Lyrics
Server problems seems to be fixed. Chordie has been experiencing problems with songs disappearing. These issues now seems to be fixed, but still verifying the fix. If you find anything strange, please email admin@chordie.com.


You Walk  Beatsteaks

Beasteaks--You walk
Eigentlich ist das lied ne halbe note runtergestimmt aber man kans auch so spielen!
Die Zweite Gitarre spiet folgende Akkorden über das ganze lied!mal mutded oder einzeln , sonst
immer einmal angschlagen im hintergrund (powerchords):
[C#] [B] [A] [B] [C#] [E(7] [bund)] [A] [B] 
 
 e---------------------------------------------------------
 ---------------------------------------------------------
 ------------------------------------4--------------------
 ----6--4------------6--4--------------6---4--------------
 --4-------7--6---4--------7--6----4------------7-----4---
 E---------------------------------------------------------

das ist das fill in! aber sonst werden die oben ablaufenden akkorde immer wieder gespielt!
Das solo geht so:
 
 e-----------------------------------------------------------------------------------
 -------------------------------------------------------------------------------7---
 -----8---8--6-------------------------------6------------------------6---------6---
 ---------------9--8--6/4--4/3-------4--6/8-----8---6---4-----4--6/8----8--6--4-----
 ---------------------------------6------------------------6------------------------
 E-----------------------------------------------------------------------------------
 e---------------------------------------------------------
 ---------------------------------------------------------
 --------------6-------------------------------4----------
 -----------6-----9--8--6--6/4------6b7-6/4----4----------
 --6--8--9------------------------------------------------
 E---------------------------------------------------------

Hier bin ich mir nich so sicher!
Sonst sollte das richtig sein!
Schöne grüsse an: Scülle , Alex , erik , wolle , claas ,FABIAN DER COWBOY, kathi b. , lisa h , maren , eva , maga , die liebe Melanie(ausm PSh) , die es uns ermöglicht zu proben!!! und all die anderen
die ich vergessen habe!
der Steffen

Important: The song above is NOT stored on the Chordie server. The original song is hosted at www.azchords.com. Chordie works as a search engine and provides on-the-fly formatting. Chordie does not index songs against artists'/composers' will. To remove this song please click here.

Text color:
Chord color:
Chord grids: 
Font size:    
Page size: 

A B C#
Rate #1 of 1 versions

Jango Player

Login - add to songbook

SHARE PAGE  



You need to log in to post comments