Guitar Tabs, Chords and Lyrics
Server problems seems to be fixed. Chordie has been experiencing problems with songs disappearing. These issues now seems to be fixed, but still verifying the fix. If you find anything strange, please email admin@chordie.com.


Sleep the Clock Around  Belle and Sebastian

PATTERN (E-piano)
[D] [A] 
[1] [+] [2] [+] [3] [+] [4] [+] [1] [+] [2] [+] [3] [+] [4] [+] [1] [+] [2] [+] [3] [+] [4] [+] [1] [+] [2] [+] [3] [+] [4] [+]  
 
 e|0-2---2---------|----------------|2-0---0---------|----------------|
 B|3-3---3---------|----------------|3-2---2---------|----------------|
 G|2-2---2---------|-------%--------|2-2---2---------|-------%--------|
 D|0-----0---------|----------------|2-----2---------|----------------|
 A|----------------|----------------|0-----0---------|----------------|
 E|----------------|----------------|----------------|----------------|

[Bm] [G] 
[1] [+] [2] [+] [3] [+] [4] [+] [1] [+] [2] [+] [3] [+] [4] [+] [1] [+] [2] [+] [3] [+] [4] [+] [1] [+] [2] [+] [3] [+] [4] [+]  
 
 e|0-2---2---------|----------------|2---------------|----------------|
 B|3-3---3---------|----------------|0-3---3---------|3-----3---------|
 G|4-4---4---------|-------%--------|0-0---0---------|0-----0---------|
 D|4-----4---------|----------------|0-0---0---------|0-----0---------|
 A|2-----2---------|----------------|----------------|----------------|
 E|----------------|----------------|3-----3---------|3-----3---------|

INTERLUDE 3 / OUTRO
[D] [A] 
[1] [+] [2] [+] [3] [+] [4] [+] [1] [+] [2] [+] [3] [+] [4] [+] [1] [+] [2] [+] [3] [+] [4] [+] [1] [+] [2] [+] [3] [+] [4] [+]  
 
 e|----------------|----------------|----------------|----------------|
 B|3-3-3-3-3-3-3-3-|----------------|2-2-2-2-2-2-2-2-|----------------|
 G|2-4-2-4-2-4-2-4-|-------%--------|2-4-2-4-2-4-2-4-|-------%--------|
 D|0---0---0---0---|----------------|2-2-2-2-2-2-2-2-|----------------|
 A|----------------|----------------|0---0---0---0---|----------------|
 E|----------------|----------------|----------------|----------------|

[Bm] [G] 
[1] [+] [2] [+] [3] [+] [4] [+] [1] [+] [2] [+] [3] [+] [4] [+] [1] [+] [2] [+] [3] [+] [4] [+] [1] [+] [2] [+] [3] [+] [4] [+]  
 
 e|----------------|----------------|----------------|----------------|
 B|3-3-3-3-3-3-3-3-|----------------|0-0-0-0-0-0-0-0-|----------------|
 G|2-4-2-4-2-4-2-4-|-------%--------|2-4-2-4-2-4-2-4-|-------%--------|
 D|4-4-4-4-4-4-4-4-|----------------|0-0-0-0-0-0-0-0-|----------------|
 A|2---2---2---2---|----------------|----------------|----------------|
 E|----------------|----------------|3---3---3---3---|----------------|
 ---------------------------------------------------------------------------

CHORDS
E-A-D-G-B-e
Bbdim x-1-2-3-2-x
 
 ---------------------------------------------------------------------------

INTRO (fade in)
| D | % | A | % |
| Bm | % | G | % |
| D | % | A | % |
| Bm | % | G | % |
| D | % | A | % |
| Bm | % | G | % |
VERSE
And the [D]moment will come when composure returns
Put a [A]face on the world, turn your back to the wall
Then you [Bm]walk twenty yards with your head in the air
Down the [G]Liberty Hill, where the fashion brigade
Look with [D]curious eyes on your raggedy way
And for [A]once in your life you've got nothing to say
And could [Bm]this be the time when somebody will come
To say, "[G]Look at yourself, you're not much use to any[D]one"
INTERLUDE
| D | % | A | % |
| Bm | % | G | % |
VERSE
Take a [D]walk in the park, take a valium pill
Read the [A]letter you got from the memory girl
But it [Bm]takes more than this to make sense of the day
Yeah, it [G]takes more than milk to get rid of the taste
And you [D]trusted to this, and you trusted to that
And when you [A]saw it all come, it was waving the flag
Of the [Bm]United States of Calamity, hey!
After [G]all that you've done, boy, I know you're going to pay
INTERLUDE 2
| D | % | A | % |
| Bm | % | G | % |
| D | % | A | % |
| Bm | % | G | % |
VERSE
In the [D]morning you come to the ladies salon
To get [A]all fitted out for The Paperback Throne
But the [Bm]people are living far away from the place
Where you [G]wanted to help, it's a bit of a waste
And the [D]puzzle will last until somebody will say
"There's a [A]lot to be done while your head is still young"
If you [Bm]put down your pen, leave your worries behind
Then the [G]moment will come, and the memory will [D]shine
INTERLUDE 3
| D | % | A | % |
| Bm | % | G | % |
| D | % | A | % |
| Bm | % | G | % |
| D | % | A | A Bbdim |
| Bm | % | G | % |
| D | % | A | A Bbdim |
| Bm | % | G | % |
VERSE
Now the [D]trouble is over, everybody got paid
Every[A]body is happy, they are glad that they came
Then you [Bm]go to the place where you've finally found
You can [G]look at yourself, sleep the clock a[D]round
OUTRO
| D | % | A | A Bbdim |
| Bm | % | G | % | D
Sleep the clock around
| D | % | A | A Bbdim |
| Bm | % | G | % | D
Sleep the clock around
| D | % | A | % |
| Bm | % | G | % |
| D | % | Asus4 | % |
| Bm | % | G | % |
| D | % | Asus4 | % |
| Bm | % | G | % |
| D | % | Asus4 | % |
| Bm | % | G | % |
(repeat and fade)

Important: The song above is NOT stored on the Chordie server. The original song is hosted at www.azchords.com. Chordie works as a search engine and provides on-the-fly formatting. Chordie does not index songs against artists'/composers' will. To remove this song please click here.

Text color:
Chord color:
Chord grids: 
Font size:    
Page size: 

A Bm D G
Rate #1 of 6 versions

Login - add to songbook

SHARE PAGE  



You need to log in to post comments