Guitar Tabs, Chords and Lyrics
Major upgrade!! After one year development the new version of Chordie is now online! Please give feedback.


Panamanian Girl  Ben Kweller

Song Title: Panamanian Girl
Chords: E 022100 (note: you can play this song with barre chords
G 320033 or with standard open chords. i play it with open
D X00232 chords until the "i'm the clown" part. have fun)
Bm X24432
A X02220
[Gm] [355333]  
[F#] [244322]  
[Am] [577555]  
[E] [G]  
 
 e:--0------------------------------X-X-3----------------------------------
 B:--0------------------------------X-X-3----------------------------------
 G:--1---------0-----------0-----0--X-X-4---------0-----------0-----0------
 D:--2---4--2--0--2--4--2--0--2--0--X-X-5---4--2--0--2--4--2--0--2--0------
 A:--2------------------------------X-X-5----------------------------------
 E:--0------------------------------X-X-3----------------------------------

[D]The blazin'[Bm] life, [G]not a big [A]deal.
I [D]wanna make you[Bm] happy I don't [G]think I[A] will.
I [D]want you to come [Bm]over, I [G]miss you[A] too.
[E]Molly's eyes are blue.
Hey I see you in slow mo',
draped in turquoise head to toe.
I want you to come over, I miss you too.
[E]Molly's eyes are blue. [Gm]Molly's eyes are ba-lue.
D Bm E(muted) D Bm G A
What is wrong? It's been so long.
Hey, [G]I'm the [A]clown when [F#]you break[G] down, Panamanian... [Am]
Girl[D].[Bm] [G] [A]
[E] [G]  
 
 e:--0-0---------------------------------3-----------------------------------
 B:--0-0---------------------------------3-----------------------------------
 G:--1-1--------0-----------0--------0---4----------0-----------0-----0------
 D:--2-2--4--2--0--2--4--2--0--2--4--0---5----4--2--0--2--4--2--0--2--0------
 A:--2-2---------------------------------5-----------------------------------
 E:--0-0---------------------------------3-3---------------------------------

Oh, it's so hard to make this work.
Hey I'm the jerk, but I still care.
I want you to know that I'm jealous of the things that aren't even there.
So look at me, Panamanian Girl.
About to cry, hey I-I can tell
what I've found. Your eyes are brown.
And I don't wanna drown in you.
So tell me what is wrong.
It's been so long.
Hey I'm the clown when you break down, Panamanian...Girl.[D] [Bm]
(repeat a few times, get crazy "oh my goodness", and end with...)
Girl [D] [Bm] [G]yeah yeah yeah [A]yeah yeah yeah [D]yeahhhh.... R[D]awk

Important: The song above is NOT stored on the Chordie server. The original song is hosted at www.azchords.com. Chordie works as a search engine and provides on-the-fly formatting. Chordie does not index songs against artists'/composers' will. To remove this song please click here.

Text color:
Chord color:
Chord grids: 
Font size:    
Page size: 

A Am Bm D E F# G Gm
Rate #1 of 1 versions

Login - add to songbook

SHARE PAGE  




You need to log in to post comments