Guitar Tabs, Chords and Lyrics
Server problems seems to be fixed. Chordie has been experiencing problems with songs disappearing. These issues now seems to be fixed, but still verifying the fix. If you find anything strange, please email admin@chordie.com.


Animal Style   Biffy Clyro

 
 D|----------------------| D|--------------|
 A|----------------------| A|--------------|
 F|----------------------| F|--------------|
 C|------12-----12---12--| x3 C|------12------|
 G|--9-9----9-9----9-----| G|--9-9----9-9--|
 C|--9-9----9-9----9-----| C|--9-9----9-9--|

 


 


 [Verse] 


 


 

 
 D|---------------------------------------|
 A|---------------------------------------|
 F|---------------------------------------|
 C|------12-----12--------5-------7-------| x8
 G|--9-9----9-9----9----------------------|
 C|--9-9----9-9----9--4-5---5-6-7---7-8---|

 


 


 [Pre-Cborus] 


 


 

 
 D|------------------------------------------------------------------------|
 A|------------------------------------------------------------------------|
 F|------------------------------------------------------------------------|
 C|-2-2-2-2--2-2-2-2--4-4-4-4--4-4-4-4--0-0-0-0--0-0-0-0--2-2-2-2--2-2-2-2-|
 G|-2-2-2-2--2-2-2-2--4-4-4-4--4-4-4-4--0-0-0-0--0-0-0-0--2-2-2-2--2-2-2-2-|
 C|-2-2-2-2--2-2-2-2--4-4-4-4--4-4-4-4--0-0-0-0--0-0-0-0--2-2-2-2--2-2-2-2-|

 


 


 [Cborus] 


 


 

 
 D|--------------------------------------------------------------------------|
 A|--------------------------------------------------------------------------|
 F|--4-4-4-4--4-4-4-4--9-9-9-9--9-9-9-9--------------------------------------|
 C|--4-4-4-4--4-4-4-4--9-9-9-9--9-9-9-9--5-5-5-5--5-5-5-5--7-7-7-7--7-7-7-7--|
 G|--2-2-2-2--2-2-2-2--7-7-7-7--7-7-7-7--5-5-5-5--5-5-5-5--7-7-7-7--7-7-7-7--|
 C|--------------------------------------5-5-5-5--5-5-5-5--7-7-7-7--7-7-7-7--|
 D|-------------------------------------------------------------------------|
 A|-------------------------------------------------------------------------|
 F|-4-4-4-4--4-4-4-4--------------------------------------------------------|
 C|-4-4-4-4--4-4-4-4--2-2-2-2--2-2-2-2--5-5-5-5--5-5-5-5--7-7-7-7--7-7-7-7--|
 G|-2-2-2-2--2-2-2-2--2-2-2-2--2-2-2-2--5-5-5-5--5-5-5-5--7-7-7-7--7-7-7-7--|
 C|-------------------2-2-2-2--2-2-2-2--5-5-5-5--5-5-5-5--7-7-7-7--7-7-7-7--|
 D|----------------------------------------------------------|
 A|----------------------------------------------------------|
 F|-4-4-4-4--4-4-4-4-----------------------------------------|
 C|-4-4-4-4--4-4-4-4--0-0-0-0--0-0-0-0--5-5-5-5--5-5-5-5--2--|
 G|-2-2-2-2--2-2-2-2--0-0-0-0--0-0-0-0--5-5-5-5--5-5-5-5--2--|
 C|-------------------0-0-0-0--0-0-0-0--5-5-5-5--5-5-5-5--2--|

 


 


 [Pre-Verse] 


 


 Lead Guitar


 


 

 
 D|---------------------------------------------|
 A|-------12------12-------12------12-----------|
 F|--9h11----9h11-----9h11----9h11-----9h11-11--| x2
 C|---------------------------------------------|
 G|---------------------------------------------|
 C|---------------------------------------------|

 


 


 Rhythm


 


 

 
 D|---------------------------------------|
 A|---------------------------------------|
 F|---------------------------------------|
 C|------12-----12--------5-------7-------| x2
 G|--9-9----9-9----9----------------------|
 C|--9-9----9-9----9--4-5---5-6-7---7-8---|

 


 


 [Verse 2] 


 


 Lead


 


 D|-----|


 A|-----|


 F|--11-| ring out


 C|-----|


 G|-----|


 C|-----|


 


 

 
 D|----------------|
 A|--12----12-12---|
 F|--x-----x--x----|
 C|--9-----9--9----| x4
 G|----------------|
 C|----------------|

 


 


 Rhythm


 


 

 
 D|----------------------|
 A|----------------------|
 F|----------------------|
 C|------5------7--------|
 G|----------------------|
 C|--4-5---5-6-7---7-8---|
 D|---------------------------------------|
 A|---------------------------------------|
 F|---------------------------------------|
 C|------12-----12--------5-------7-------| x4
 G|--9-9----9-9----9----------------------|
 C|--9-9----9-9----9--4-5---5-6-7---7-8---|

 


 


 [Pre-Cborus] 


 


 

 
 D|------------------------------------------------------------------------|
 A|------------------------------------------------------------------------|
 F|------------------------------------------------------------------------|
 C|-2-2-2-2--2-2-2-2--4-4-4-4--4-4-4-4--0-0-0-0--0-0-0-0--2-2-2-2--2-2-2-2-|
 G|-2-2-2-2--2-2-2-2--4-4-4-4--4-4-4-4--0-0-0-0--0-0-0-0--2-2-2-2--2-2-2-2-|
 C|-2-2-2-2--2-2-2-2--4-4-4-4--4-4-4-4--0-0-0-0--0-0-0-0--2-2-2-2--2-2-2-2-|

 


 


 [Cborus] 


 


 

 
 D|--------------------------------------------------------------------------|
 A|--------------------------------------------------------------------------|
 F|--4-4-4-4--4-4-4-4--9-9-9-9--9-9-9-9--------------------------------------|
 C|--4-4-4-4--4-4-4-4--9-9-9-9--9-9-9-9--5-5-5-5--5-5-5-5--7-7-7-7--7-7-7-7--|
 G|--2-2-2-2--2-2-2-2--7-7-7-7--7-7-7-7--5-5-5-5--5-5-5-5--7-7-7-7--7-7-7-7--|
 C|--------------------------------------5-5-5-5--5-5-5-5--7-7-7-7--7-7-7-7--|
 D|-------------------------------------------------------------------------|
 A|-------------------------------------------------------------------------|
 F|-4-4-4-4--4-4-4-4--------------------------------------------------------|
 C|-4-4-4-4--4-4-4-4--2-2-2-2--2-2-2-2--5-5-5-5--5-5-5-5--7-7-7-7--7-7-7-7--|
 G|-2-2-2-2--2-2-2-2--2-2-2-2--2-2-2-2--5-5-5-5--5-5-5-5--7-7-7-7--7-7-7-7--|
 C|-------------------2-2-2-2--2-2-2-2--5-5-5-5--5-5-5-5--7-7-7-7--7-7-7-7--|
 D|----------------------------------------------------------|
 A|----------------------------------------------------------|
 F|-4-4-4-4--4-4-4-4-----------------------------------------|
 C|-4-4-4-4--4-4-4-4--0-0-0-0--0-0-0-0--5-5-5-5--5-5-5-5--2--|
 G|-2-2-2-2--2-2-2-2--0-0-0-0--0-0-0-0--5-5-5-5--5-5-5-5--2--|
 C|-------------------0-0-0-0--0-0-0-0--5-5-5-5--5-5-5-5--2--|

 


 


 [Weird Bit] 


 


 Lead


 


 

 
 D|--------------------------------------------------------------------13-10----------------13-10--------|
 A|--7h10p7------7------7h10p7------7--------7h10p7------7-9---------------------------------------------|
 F|---------10-7---10----------10-7---10-7----------10-7---------10-13-------13-10----10-13-------13-10--|
 C|-----------------------------------------------------------12-------------------12--------------------| x2
 G|------------------------------------------------------------------------------------------------------|
 C|------------------------------------------------------------------------------------------------------|

 


 


 Rhythm


 


 

 
 D|---------------------------------------------------------------|
 A|---------------------------------------------------------------|
 F|-------------------2-2-2-4-4-4-4-x3----------------------------|
 C|--3-3-3-4-4-4-4-4---------------------3-3--3-3-3---3-3--3-3-3--| x2
 G|---------------------------------------------------------------|
 C|---------------------------------------------------------------|

 


 


 [Cborus] 


 


 

 
 D|--------------------------------------------------------------------------|
 A|--------------------------------------------------------------------------|
 F|--4-4-4-4--4-4-4-4--9-9-9-9--9-9-9-9--------------------------------------|
 C|--4-4-4-4--4-4-4-4--9-9-9-9--9-9-9-9--5-5-5-5--5-5-5-5--7-7-7-7--7-7-7-7--|
 G|--2-2-2-2--2-2-2-2--7-7-7-7--7-7-7-7--5-5-5-5--5-5-5-5--7-7-7-7--7-7-7-7--|
 C|--------------------------------------5-5-5-5--5-5-5-5--7-7-7-7--7-7-7-7--|
 D|-------------------------------------------------------------------------|
 A|-------------------------------------------------------------------------|
 F|-4-4-4-4--4-4-4-4--------------------------------------------------------|
 C|-4-4-4-4--4-4-4-4--2-2-2-2--2-2-2-2--5-5-5-5--5-5-5-5--7-7-7-7--7-7-7-7--|
 G|-2-2-2-2--2-2-2-2--2-2-2-2--2-2-2-2--5-5-5-5--5-5-5-5--7-7-7-7--7-7-7-7--|
 C|-------------------2-2-2-2--2-2-2-2--5-5-5-5--5-5-5-5--7-7-7-7--7-7-7-7--|
 D|----------------------------------------------------------|
 A|----------------------------------------------------------|
 F|-4-4-4-4--4-4-4-4-----------------------------------------|
 C|-4-4-4-4--4-4-4-4--0-0-0-0--0-0-0-0--5-5-5-5--5-5-5-5--2--|
 G|-2-2-2-2--2-2-2-2--0-0-0-0--0-0-0-0--5-5-5-5--5-5-5-5--2--|
 C|-------------------0-0-0-0--0-0-0-0--5-5-5-5--5-5-5-5--2--|

 


 


 [Outro] 


 


 

 
 D|---------------------------------------|
 A|---------------------------------------|
 F|---------------------------------------|
 C|------12-----12--------5-------7-------| x3
 G|--9-9----9-9----9----------------------|
 C|--9-9----9-9----9--4-5---5-6-7---7-8---|
 D|--------------------------------|
 A|--------------------------------|
 F|--------------------------------|
 C|------12-----12--------5-----7--|
 G|--9-9----9-9----9------------7--|
 C|--9-9----9-9----9--4-5---5-6-7--|


Important: The song above is NOT stored on the Chordie server. The original song is hosted at www.azchords.com. Chordie works as a search engine and provides on-the-fly formatting. Chordie does not index songs against artists'/composers' will. To remove this song please click here.

This song is displayed as text-only. Transposing and tuning is only available for chordpro-songs.
Rate #1 of 1 versions

Jango Player

Login - add to songbook

SHARE PAGE  



You need to log in to post comments