Guitar Tabs, Chords and Lyrics
Major upgrade!! After one year development the new version of Chordie is now online! Please give feedback.


Lonely Is the Night  Billy Squier

[Intro] 
 
 e|---------0----------------|-------0----------|-------0---------------------|
 B|---------0----------------|-------0----------|-------0---------------------|
 G|---2h4-4-4---2p1-2p1------|-2h4-4-4---2p1-2~-|-2h4-4-4--2p1-2p1------------|
 D|---------------------2----|------------------|------------------2------2---|
 A|--------------------------|------------------|---------------------2h4-----|
 E|-----------------------0--|------------------|-----------------------------|
 e|----------------------0~|
 B|----------------------0~|
 G|------------------------|
 D|------0-----0-----------|
 A|--4h5---4h5----4-2------|
 E|-------------------0~---|

[Verse] 
[E]Lonely i[D]s the [E]night when you [E]find [D]yours[A]elf alone
[E]Your dem[D]ons co[E]me to light and[E] your[D] mind[A] is not your own
[E]Lonely i[D]s the [E]night when ther[E]e's n[D]o one[A] left to call
[E]You feel[D] the t[E]ime is right--[[E]say] [D]the w[A]ritin's on the wall
[Interlude] 
[E] [D] [E] [E] [D] [A] 
[E] [D] [E] [E] [D] [A] 
[Verse] 
[E]It's a h[D]igh ti[E]me to fight whe[E]n the[D] wall[A]s are closin' in
[E]Call it [D]what y[E]ou like--it's t[E]ime y[D]ou go[A]t to win
[E]Lonely, [D]lonely[E], lonely--your [E]spiri[D]t's s[A]inkin' down
[E]You find[D] you'r[E]e not the only [E]stran[D]ger i[A]n this town
[Cborus] 
[B]Red lig[E5]hts, gr[B]een lights, sto[B]p 'n [E5]go ji[Em]ve
[B]Headlin[E5]es, dea[B]dlines jammin' [B]your [E5]mind[Em]
[D]You bee[C]n steal[D]in' shots from [D]the s[C]ide[G]
[D]Let you[C]r feeli[D]n's go for a ri[D]de[C] [G]
[Bridge] 
[E] [D] [E] [E] [D] [A] 
[E] [D] [E] [E] [D] [A] 
[Verse] 
[E]There's [D]danger[E] out tonight.. [E]The m[D]an is[A] on the prowl
[E]Get the [D]dynami[E]te... The boys [E]are s[D]et to[A] howl
[E]Lonely i[D]s the [E]night when you [E]hear [D]the v[A]oices call
[E]Are you [D]ready [E]for a fight--do[E] you [D]wanna[A] take it all
[Cborus] 
[B]Slowdow[E5]n, show[B]down--waitin' o[B]n lin[E5]e[Em]
[B]Showtim[E5]e, no t[B]ime for changin[B]' you[E5]r min[Em]d
[D]Streets[C] are ri[D]ngin', march to[D] the [C]sound[G]
[D]Let you[C]r secre[D]ts follow you d[D]own[C] [G]
[E]Somebody's watchin' you baby-[D]-s[E]o much you can do
[E]Nobody's stoppin' you baby, f[D]ro[E]m makin' it too
[E]One glimpse'll show you now b[D]ab[E]y, what the music can do
[E]One kiss'll show you now baby[D]--[E]it can happen to you
[Guitar Solo] ?
[E] [D] [E] [E] [D] [A] 
[E] [D] [E] [E] [D] [A] 
[Cborus] 
[E]No more [D]sleepi[E]n', wastin' our[E] time[D] [A]
[E]Midnight[D] creep[E]in's first on o[E]ur mi[D]nds[A]
[E]No more [D]lazin'[E] 'round the tv[E] [D] [A]
[E]You'll g[D]o craz[E]y--come out wit[E]h me[D] [A]
[Bridge] 
[E] [D] [E] [E] [D] [A] 
[E] [D] [E] [E] [D] [A] 
[Instrumental] 
[E] [D] [E] [E] [D] [A] 
[E] [D] [E] [E] [D] [A] 
[E] [D] [E] [E] [D] [A] 
[E] [D] [E] [E] [D] [A] 
[E] [D] [E] [E] [D] [A] 
[E] [D] [E] [E] [D] [A] 
[E] [D] [E] [E] [D] [A] 
[First riff] X4
 
 e|--------------|-----------------------|
 B|--------------|-------------2-x-3-3-2-|
 G|--9-9-9-7-x-9-|-9-9-9-x-7-x-2-x-2-2-2-|
 D|--9-9-9-7-x-9-|-9-9-9-x-7-x-2-x-4-4-2-|
 A|--7-7-7-5-x-7-|-7-7-7-x-5-x-0-x-0-0-0-|
 E|--------------|-----------------------|


Important: The song above is NOT stored on the Chordie server. The original song is hosted at www.azchords.com. Chordie works as a search engine and provides on-the-fly formatting. Chordie does not index songs against artists'/composers' will. To remove this song please click here.

Text color:
Chord color:
Chord grids: 
Font size:    
Page size: 

A B C D E E5 Em G
Rate #1 of 2 versions

Login - add to songbook

SHARE PAGE  




You need to log in to post comments