Guitar Tabs, Chords and Lyrics
Server problems seems to be fixed. Chordie has been experiencing problems with songs disappearing. These issues now seems to be fixed, but still verifying the fix. If you find anything strange, please email admin@chordie.com.


February Winds   Billy Talent

 
 e|---------------------------------------------------------------------------------------------------------|
 B|-7-7--7-7-7-7--7-7--7-7-7--7-7-7--7-7-7-7--7-7--7-7-7--7-7-7--7-7--7-7--7-7-7--7-7--5-5------------------|
 G|-6-6--6-6-6-6--x-x--x-x-x--x-x-x--x-x-x-x--8-8--8-9-9--9-6-6--6-9--9-8--8-6-6--6-6--4-4--4-2--2-2-1--2-1-|
 D|-4-4--4-4-4-4--6-6--6-7-7--7-9-9--9-9-9-9--9-9--9-9-9--9-7-7--7-7--7-7--7-7-7--7-7--2-2--2-2--2-2-2--2-2-|
 A|---------------------------------------------------------------------------------------------------------|
 D|---------------------------------------------------------------------------------------------------------|

 


 


 (2x) (2. Guitar)


 

 
 e|----------------------------------------------------------------------------------------------------------|
 B|----------------------------------------------------------------------------------------------------------|
 G|----------------------------------------------------------------------------------------------------------|
 D|--4-4--4-4--4-4-4-4--4-4--4-4-9-9--9-9--9-9-9-9--9-9--9-9-7-7--7-7--7-7-7-7--7-7--7-7-2-2--2-2--2-2-2-2---|
 A|--4-4--4-4--4-4-4-4--4-4--4-4-9-9--9-9--9-9-9-9--9-9--9-9-7-7--7-7--7-7-7-7--7-7--7-7-2-2--2-2--2-2-2-2---|
 D|--4-4--4-4--4-4-4-4--4-4--4-4-9-9--9-9--9-9-9-9--9-9--9-9-7-7--7-7--7-7-7-7--7-7--7-7-2-2--2-2--2-2-2-2---|

 


 


 


 [Verse] 


 (2x)


 

 
 e|-----------------------------------------------------------------------------------|
 B|-----------------------------------------------------------------------------------|
 G|-----------------------------------------------------------------------------------|
 D|-4------4------4-----4------4------4-----4------4------4----4------4-------4-------|
 A|----------------------2-2-2--2-2-2--2-2---0-0-0--0-0-0--0-0------------------------|
 D|--4-4-4--4-4-4--4-4------------------------------------------2-2-2---2-2-2--2-2----|

 


 


 (3x)


 

 
 e|--------------------------------|--------------------------|
 B|---------------------5-----7-7--|---------------------5~---|
 G|-----------------6-6-x-6---6-6--|-----------------6-6-6~---|
 D|-4-4-4-6-6-6-7-7-4-4-4-4-4-4-4--|-4-4-4-6-6-6-7-7-4-4-4~---|
 A|-4-4-4-4-4-4-4-4-4-4-4-4-4-4-4--|-4-4-4-4-4-4-4-4-4-4-4~---|
 D|-4-4-4-4-4-4-4-4-4-4-4-4-4-4-4--|-4-4-4-4-4-4-4-4-4-4-4~---|

 


 


 


 [Cborus] 


 (2x)


 

 
 e|-----------------------------------------------------------------------------------------------------------|
 B|-7-7--7-7-7-7--7-7--7-7-7--7-7-7--7-7-7-7--7-7--7-7-7--7-7-7--7-7--7-7--7-7-7--7-7--5-5--------------------|
 G|-6-6--6-6-6-6--x-x--x-x-x--x-x-x--x-x-x-x--8-8--8-9-9--9-6-6--6-9--9-8--8-6-6--6-6--4-4--4-2--2-2-1--2-2-1-|
 D|-4-4--4-4-4-4--6-6--6-7-7--7-9-9--9-9-9-9--9-9--9-9-9--9-7-7--7-7--7-7--7-7-7--7-7--2-2--2-2--2-2-2--2-2-2-|
 A|-----------------------------------------------------------------------------------------------------------|
 D|-----------------------------------------------------------------------------------------------------------|

 


 


 (2x) (2. Guitar)


 

 
 e|----------------------------------------------------------------------------------------------------------|
 B|----------------------------------------------------------------------------------------------------------|
 G|----------------------------------------------------------------------------------------------------------|
 D|--4-4--4-4--4-4-4-4--4-4--4-4-9-9--9-9--9-9-9-9--9-9--9-9-7-7--7-7--7-7-7-7--7-7--7-7-2-2--2-2--2-2-2-2---|
 A|--4-4--4-4--4-4-4-4--4-4--4-4-9-9--9-9--9-9-9-9--9-9--9-9-7-7--7-7--7-7-7-7--7-7--7-7-2-2--2-2--2-2-2-2---|
 D|--4-4--4-4--4-4-4-4--4-4--4-4-9-9--9-9--9-9-9-9--9-9--9-9-7-7--7-7--7-7-7-7--7-7--7-7-2-2--2-2--2-2-2-2---|

 


 


 


 [Verse] 


 (4x)


 

 
 e|-----------------------------------------------------------------------------------|
 B|-----------------------------------------------------------------------------------|
 G|-----------------------------------------------------------------------------------|
 D|-4------4------4-----4------4------4-----4------4------4----4------4-------4-------|
 A|----------------------2-2-2--2-2-2--2-2---0-0-0--0-0-0--0-0------------------------|
 D|--4-4-4--4-4-4--4-4------------------------------------------2-2-2---2-2-2--2-2----|

 


 


 (3x)


 

 
 e|--------------------------------|--------------------------------------|
 B|---------------------5-----7-7--|---------------------5---7-7-7-7------|
 G|-----------------6-6-x-6---6-6--|-----------------6-6-x---6-6-6-6------|
 D|-4-4-4-6-6-6-7-7-4-4-4-4-4-4-4--|-4-4-4-6-6-6-7-7-4-4-4-4-4-4-4-4------|
 A|-4-4-4-4-4-4-4-4-4-4-4-4-4-4-4--|-4-4-4-4-4-4-4-4-4-4-4-4-4-4-4-4------|
 D|-4-4-4-4-4-4-4-4-4-4-4-4-4-4-4--|-4-4-4-4-4-4-4-4-4-4-4-4-4-4-4-4------|

 


 


 


 [Breakdown] 


 


 

 
 e|------------------------------------------------------------------|
 B|------------------7-7-7-7-7-7-7-7-5-5-5-5-5-5-5-5--3--------------|
 G|------------------6-6-6-6-6-6-6-6-4-4-4-4-4-4-4-4--2--------------|
 D|-7-=> 24x---9-9-9-4-4-4-4-4-4-4-4-2-2-2-2-2-2-2-2--0-=> 24x-------|
 A|-7----------9-9-9-4-4-4-4-4-4-4-4-2-2-2-2-2-2-2-2--0--------------|
 D|-7----------9-9-9-4-4-4-4-4-4-4-4-2-2-2-2-2-2-2-2--0--------------|

 


 


 [Solo] 


 


 

 
 e|---------------------------------------------------------------------------|
 B|---------------------------------------------------------------------------|
 G|---------------------------------------------------------------------------|
 D|---------------------------------------------------------------------------|
 A|---------------------------------------------------------------------------|
 D|---------------------------------------------------------------------------|

 


 


 [After Solo] 


 (5x)


 

 
 e|--------------------------------|--------------------------------------|
 B|---------------------5-----7-7--|---------------------5---7-7-7-7------|
 G|-----------------6-6-x-6---6-6--|-----------------6-6-x---6-6-6-6------|
 D|-4-4-4-6-6-6-7-7-4-4-4-4-4-4-4--|-4-4-4-6-6-6-7-7-4-4-4-4-4-4-4-4------|
 A|-4-4-4-4-4-4-4-4-4-4-4-4-4-4-4--|-4-4-4-4-4-4-4-4-4-4-4-4-4-4-4-4------|
 D|-4-4-4-4-4-4-4-4-4-4-4-4-4-4-4--|-4-4-4-4-4-4-4-4-4-4-4-4-4-4-4-4------|

 


 


 


 [Outro] 


 


 (2x)


 

 
 e|------------------------------------------------------------------|
 B|------------------7-7-7-7-7-7-7-7-5-5-5-5-5-5-5-5--3--------------|
 G|------------------6-6-6-6-6-6-6-6-4-4-4-4-4-4-4-4--2--------------|
 D|-7-=> 24x---9-9-9-4-4-4-4-4-4-4-4-2-2-2-2-2-2-2-2--0-=> 24x-------|
 A|-7----------9-9-9-4-4-4-4-4-4-4-4-2-2-2-2-2-2-2-2--0--------------|
 D|-7----------9-9-9-4-4-4-4-4-4-4-4-2-2-2-2-2-2-2-2--0--------------|

 


 


 (4x)


 

 
 e|----------------------------------------------------------------------|
 B|-7-7-7-7-7-7-7-7-7-7-7-7-7-7-7-7-7-7-7-7-7-7-7-7-5-5-5-5-5-5-5-5------|
 G|-6-6-6-6-6-6-6-6-8-8-8-9-9-9-9-9-6-6-6-6-6-6-6-6-4-4-4-4-4-4-4-4------|
 D|-4-4-4-4-4-4-4-4-7-7-7-7-7-7-7-7-4-4-4-4-4-4-4-4-2-2-2-2-2-2-2-2------|
 A|---------------------------------4-4-4-4-4-4-4-4-2-2-2-2-2-2-2-2------|
 D|---------------------------------4-4-4-4-4-4-4-4-2-2-2-2-2-2-2-2------|
 e|--------------------------------------|
 B|-7-7-7-7-7-7-7-7-7-7-7-7-7-7-7-7-7~---|
 G|-6-6-6-6-6-6-6-6-8-8-8-9-9-9-9-9-6~---|
 D|-4-4-4-4-4-4-4-4-7-7-7-7-7-7-7-7-4~---|
 A|---------------------------------4~---|
 D|---------------------------------4~---| 


Important: The song above is NOT stored on the Chordie server. The original song is hosted at www.azchords.com. Chordie works as a search engine and provides on-the-fly formatting. Chordie does not index songs against artists'/composers' will. To remove this song please click here.

This song is displayed as text-only. Transposing and tuning is only available for chordpro-songs.
Rate #1 of 1 versions

Jango Player

Login - add to songbook

SHARE PAGE  




You need to log in to post comments