Guitar Tabs, Chords and Lyrics
Login is temporarily disabled for some users. Do not panic. Will be back in an hour or two. DO NOT REREGISTER!!


Louder Than the DJ   Billy Talent

 
 e|---------------------------------------------------------------------|------|
 B|---------------------------------------------------------------------|------|
 G|-6/-7-7-7-6/-7-7-7-6/-7-7-7-7-10-------------------------------------|-7~---|
 D|-6/-7-7-7-6/-7-7-7-6/-7-7-7-7-10-5-6-7-7-7-7-7-7-7-7-5-5-5-5-5-5-5-5-|-7~---|
 A|-4/-5-5-5-4/-5-5-5-4/-5-5-5-5-8--5-6-7-7-7-7-7-7-7-7-5-5-5-5-5-5-5-5-|-5~---|
 D|---------------------------------5-6-7-7-7-7-7-7-7-7-5-5-5-5-5-5-5-5-|------|

 


 


 [Verse] 


 


 

 
 e|---------------------------------------------------------------------|
 B|---------------------------------------------------------------------|
 G|---------------------------------------------------------------------|
 D|-7-7-7-7-7-7-7-7-7-7-7-7-7-7-7-7-7-7-7-7-7-7-7-7-7-7-7-7-7-7-7-7-----|
 A|-5-5-5-5-5-5-5-5-5-5-5-5-5-5-5-5-5-5-5-5-5-5-5-5-5-5-5-5-5-5-5-5-----|
 D|---------------------------------------------------------------------|

 


 x x x x x x x x x x x x x x x x x x x x x x x x x x x x x x x x


 


 (2x)


 

 
 e|---------------------------------------------------------------------|
 B|---------------------------------------------------------------------|
 G|---------------------------------------------------------------------|
 D|--------------------------------------------------------5-5-3-3-0-0--|
 A|-4/-5-5-5-4/-5-5-5-4/-5-5-5-5-8-------------7-7-8-8------------------|
 D|--------------------------------3-5-7-7-7-7---------5-5--------------|

 


 


 [Cborus] 


 (2x)


 

 
 e|---------------------------------------------------------------------|
 B|---------------------------------------------------------------------|
 G|-6/-7-7-7-6/-7-7-7-7-7-7-7-7-10--------------------------------------|
 D|-6/-7-7-7-6/-7-7-7-7-7-7-7-7-10-5-6-7-7-7-7-7-7-7-7-5-5-5-5-5-5-5-5--|
 A|-4/-5-5-5-4/-5-5-5-5-5-5-5-5-8--5-6-7-7-7-7-7-7-7-7-5-5-5-5-5-5-5-5--|
 D|--------------------------------5-6-7-7-7-7-7-7-7-7-5-5-5-5-5-5-5-5--|
 e|---------------------------------------------------------------------------|
 B|---------------------------------------------------------------------------|
 G|-5--7-8-8-8-8-8-8-8--------------5--7-8-8-8-8-8-8-8--------------5--7~-----|
 D|-5--7-8-8-8-8-8-8-8-8-7-7-7-7-7--5--7-8-8-8-8-8-8-8-8-7-7-5-5-5--5--7~-----|
 A|-3--5-6-6-6-6-6-6-6-8-7-7-7-7-7--3--5-6-6-6-6-6-6-6-8-7-7-5-3-5--3--5~-----|
 D|--------------------8-7-7-7-7-7---------------------8-7-7-5-3-5------------|

 


 


 [Verse] 


 


 

 
 e|---------------------------------------------------------------------|
 B|---------------------------------------------------------------------|
 G|---------------------------------------------------------------------|
 D|-7-7-7-7-7-7-7-7-7-7-7-7-7-7-7-7-7-7-7-7-7-7-7-7-7-7-7-7-7-7-7-7-----|
 A|-5-5-5-5-5-5-5-5-5-5-5-5-5-5-5-5-5-5-5-5-5-5-5-5-5-5-5-5-5-5-5-5-----|
 D|---------------------------------------------------------------------|

 


 x x x x x x x x x x x x x x x x x x x x x x x x x x x x x x x x


 


 (2x)


 

 
 e|---------------------------------------------------------------------|
 B|---------------------------------------------------------------------|
 G|---------------------------------------------------------------------|
 D|--------------------------------------------------------5-5-3-3-0-0--|
 A|-4/-5-5-5-4/-5-5-5-4/-5-5-5-5-8-------------7-7-8-8------------------|
 D|--------------------------------3-5-7-7-7-7---------5-5--------------|

 


 


 [Cborus] 


 (4x)


 

 
 e|---------------------------------------------------------------------|
 B|---------------------------------------------------------------------|
 G|-6/-7-7-7-6/-7-7-7-7-7-7-7-7-10--------------------------------------|
 D|-6/-7-7-7-6/-7-7-7-7-7-7-7-7-10-5-6-7-7-7-7-7-7-7-7-5-5-5-5-5-5-5-5--|
 A|-4/-5-5-5-4/-5-5-5-5-5-5-5-5-8--5-6-7-7-7-7-7-7-7-7-5-5-5-5-5-5-5-5--|
 D|--------------------------------5-6-7-7-7-7-7-7-7-7-5-5-5-5-5-5-5-5--|

 


 


 (3x)


 

 
 e|---------------------------------|-------------------------------------------|
 B|---------------------------------|-------------------------------------------|
 G|-5--7-8-8-8-8-8-8-8--------------|-5--7-8-8-8-8-8-8-8--------------5--7~-----|
 D|-5--7-8-8-8-8-8-8-8-8-7-7-7-7-7--|-5--7-8-8-8-8-8-8-8-8-7-7-5-5-5--5--7~-----|
 A|-3--5-6-6-6-6-6-6-6-8-7-7-7-7-7--|-3--5-6-6-6-6-6-6-6-8-7-7-5-3-5--3--5~-----|
 D|--------------------8-7-7-7-7-7--|--------------------8-7-7-5-3-5------------|

 


 


 [Solo] 


 


 

 
 e|---------------------------------------------------------------------------------------...
 B|-10-10-10-10-10-10-10-13--13-10-10-----------------------------------------------------...
 G|-12----12----12----12--------------12-12-10---------------------------------12~--10~---...
 D|--------------------------------------------12-------------14---15----------12~--10~---...
 A|-----------------------------------------------12-12-12-12----12---12-14-14------------...
 D|---------------------------------------------------------------------------------------...

 


 [b] [b] [b]  


 

 
 e|-----------------------------------------------------------------------------------------------------------|
 B|-------------------------10-13-13-13-10-13-13-10-10-10-10-10-10-10-10-10-10-10-10-10-10-10-10-10-10-12-----|
 G|-------------------10-12-10-12-12-12-10-12-12-12-10-12-12-10-12-12-10-12-12-10-12-12-10-12-12-10-------12\-|
 D|-10-12-10-12-12-12-----------------------------------------------------------------------------------------|
 A|-----------------------------------------------------------------------------------------------------------|
 D|-----------------------------------------------------------------------------------------------------------|

 


 [b] [b] [b] [b] [b] [b] [b] [b] [b] [b] [b] 


 


 [After Solo] 


 (3x)


 

 
 e|---------------------------------|-------------------------------------------|
 B|---------------------------------|-------------------------------------------|
 G|-5--7-8-8-8-8-8-8-8--------------|-5--7-8-8-8-8-8-8-8--------------5--7~-----|
 D|-5--7-8-8-8-8-8-8-8-8-7-7-7-7-7--|-5--7-8-8-8-8-8-8-8-8-7-7-5-5-5--5--7~-----|
 A|-3--5-6-6-6-6-6-6-6-8-7-7-7-7-7--|-3--5-6-6-6-6-6-6-6-8-7-7-5-3-5--3--5~-----|
 D|--------------------8-7-7-7-7-7--|--------------------8-7-7-5-3-5------------|

 


 


 ...someone said a long time ago,... rock´n´roll will never grow old...


 


 ...louder, louder, louder than the dj!


 


 

 
 e|---------------------------------------------------------------------|
 B|---------------------------------------------------------------------|
 G|---------------------------------------------------------------------|
 D|-7-7-7-7-7-7-7-7-7-7-7-7-7-7-7-7-7-7-7-7-7-7-7-7-7-7-7-7-7-7-7-7-----|
 A|-5-5-5-5-5-5-5-5-5-5-5-5-5-5-5-5-5-5-5-5-5-5-5-5-5-5-5-5-5-5-5-5-----|
 D|---------------------------------------------------------------------|

 


 x x x x x x x x x x x x x x x x x x x x x x x x x x x x x x x x


 


 

 
 e|---------------------------------------------------------------------|
 B|---------------------------------------------------------------------|
 G|---------------------------------------------------------------------|
 D|--------------------------------------------------------5-5-3-3-0-0--|
 A|-4/-5-5-5-4/-5-5-5-4/-5-5-5-5-8-------------7-7-8-8------------------|
 D|--------------------------------3-5-7-7-7-7---------5-5--------------|

 


 


 [Cborus] 


 (4x)


 

 
 e|---------------------------------------------------------------------|
 B|---------------------------------------------------------------------|
 G|-6/-7-7-7-6/-7-7-7-7-7-7-7-7-10--------------------------------------|
 D|-6/-7-7-7-6/-7-7-7-7-7-7-7-7-10-5-6-7-7-7-7-7-7-7-7-5-5-5-5-5-5-5-5--|
 A|-4/-5-5-5-4/-5-5-5-5-5-5-5-5-8--5-6-7-7-7-7-7-7-7-7-5-5-5-5-5-5-5-5--|
 D|--------------------------------5-6-7-7-7-7-7-7-7-7-5-5-5-5-5-5-5-5--|

 


 


 (3x)


 

 
 e|---------------------------------|-------------------------------------------------------|
 B|---------------------------------|-------------------------------------------------------|
 G|-5--7-8-8-8-8-8-8-8--------------|-5--7-8-8-8-8-8-8-8--------------5--7~------------7-7--|
 D|-5--7-8-8-8-8-8-8-8-8-7-7-7-7-7--|-5--7-8-8-8-8-8-8-8-8-7-7-5-5-5--5--7~------------7-7--|
 A|-3--5-6-6-6-6-6-6-6-8-7-7-7-7-7--|-3--5-6-6-6-6-6-6-6-8-7-7-5-3-5--3--5~------------5-5--|
 D|--------------------8-7-7-7-7-7--|--------------------8-7-7-5-3-5------------------------| 


Important: The song above is NOT stored on the Chordie server. The original song is hosted at www.azchords.com. Chordie works as a search engine and provides on-the-fly formatting. Chordie does not index songs against artists'/composers' will. To remove this song please click here.

This song is displayed as text-only. Transposing and tuning is only available for chordpro-songs.
Rate #1 of 1 versions

Login - add to songbook

SHARE PAGE  



You need to log in to post comments