Guitar Tabs, Chords and Lyrics
Server problems seems to be fixed. Chordie has been experiencing problems with songs disappearing. These issues now seems to be fixed, but still verifying the fix. If you find anything strange, please email admin@chordie.com.


Rabbit Down the Hole   Billy Talent

 
 e|-----0--1--3--1-0-----1-----1--1-0-------0-----0-------------------------------|
 B|--3------------3-3-3-----3--------3-1-3-----3-----3--3-3-3--3--3--3--3---------|
 G|-2-2--2--2--2-------2--2--2--2---------2--2--2--2--2------2--2--2--2--2--------|
 D|----0--0--0--0-----------------------------------------------------------------|
 A|---------------------3--3--3--3----------------------------------0--0--0-------|
 D|----------------------------------------3--3--3--3--3------2--2----------------|

 


 


 (Ben starts singing...) (2x)


 

 
 e|-----0--1--3--1-0-----1-----1--1-0-------0-----0-------------------------------|
 B|--3------------3-3-3-----3--------3-1-3-----3-----3--3-3-3--3--3--3--3---------|
 G|---2--2--2--2-------2--2--2--2---------2--2--2--2--2------2--2--2--2--2--------|
 D|----0--0--0--0-----------------------------------------------------------------|
 A|---------------------3--3--3--3----------------------------------0--0--0-------|
 D|----------------------------------------3--3--3--3--3------2--2----------------|

 


 


 (Drums comes in...)


 

 
 e|-----0--1--3--1-0-----1-----1--0-1-0-----0-----0-------------------------------|
 B|--3------------3-3-3-----3----------3-3-----3-----3--3-3-3--3--3--3--3---------|
 G|---2--2--2--2-------2--2--2--2---------2--2--2--2--2------2--2--2--2--2--------|
 D|----0--0--0--0-----------------------------------------------------------------|
 A|---------------------3--3--3--3----------------------------------0--0--0-------|
 D|----------------------------------------3--3--3--3--3------2--2----------------|
 e|-----0--1--3--1-0-----1--------------------------------------------------------|
 B|--3------------3-3-3------3~---------------------------------------------------|
 G|---2--2--2--2-------2--2--2~---------------------------------------------------|
 D|----0--0--0--0------------x----------------------------------------------------|
 A|---------------------3--3-3~---------------------------------------------------|
 D|-------------------------------------------------------------------------------|
 e|-----0--1--3--1-0-----1-----1--1-0-------0-----0-------------------------------|
 B|--3------------3-3-3-----3--------3-1-3-----3-----3--3-3-3--3--3--3--3---------|
 G|-2-2--2--2--2-------2--2--2--2---------2--2--2--2--2------2--2--2--2--2--------|
 D|----0--0--0--0-----------------------------------------------------------------|
 A|---------------------3--3--3--3----------------------------------0--0--0-------|
 D|----------------------------------------3--3--3--3--3------2--2----------------|

 


 


 [Verse] 


 


 (2x)


 

 
 e|-----0--1--3--1-0-----1-----1--1-0-------0-----0-------------------------------|
 B|--3------------3-3-3-----3--------3-1-3-----3-----3--3-3-3--3--3--3--3---------|
 G|---2--2--2--2-------2--2--2--2---------2--2--2--2--2------2--2--2--2--2--------|
 D|----0--0--0--0-----------------------------------------------------------------|
 A|---------------------3--3--3--3----------------------------------0--0--0-------|
 D|----------------------------------------3--3--3--3--3------2--2----------------|
 e|-----0--1--3--1-0-----1-----1--0-1-0-----0-----0-------------------------------|
 B|--3------------3-3-3-----3----------3-3-----3-----3--3-3-3--3--3--3--3---------|
 G|---2--2--2--2-------2--2--2--2---------2--2--2--2--2------2--2--2--2--2--------|
 D|----0--0--0--0-----------------------------------------------------------------|
 A|---------------------3--3--3--3----------------------------------0--0--0-------|
 D|----------------------------------------3--3--3--3--3------2--2----------------|
 e|-----0--1--3--1-0-----1--------------------------------------------------------|
 B|--3------------3-3-3------3~---------------------------------------------------|
 G|---2--2--2--2-------2--2--2~---------------------------------------------------|
 D|----0--0--0--0------------x----------------------------------------------------|
 A|---------------------3--3-3~---------------------------------------------------|
 D|-------------------------------------------------------------------------------|

 


 


 [Cborus] 


 (2x)


 

 
 e|-------------------------------------------------------------------------------------------------------|
 B|-------------------------------------------------------------------------------------------------------|
 G|---------------------5-7-5-------------------------------------------------------------------------5---|
 D|-----3-----------5-7-------7-5---5-7--7----10-7-5-0-3-5--5-------------------------------5-----7-------|
 A|-3-5-0-5-3/5-5-8---------------8-5-7--7----10-7-5-0-3-5--5-------------8-----7-----8-------------------|
 D|-0-0-0-0-0-0-0-0-----------------5-7--7----10-7-5-0-3-5--5--3-5b-5-3-0---0-0---0-0---0-0---0-0---0-----|

 


 


 


 [Post-Cborus] 


 

 
 e|-----0--1--3--1-0-----1-----1--1-0-------0-----0-------------------------------|
 B|--3------------3-3-3-----3--------3-1-3-----3-----3--3-3-3--3--3--3--3---------|
 G|-2-2--2--2--2-------2--2--2--2---------2--2--2--2--2------2--2--2--2--2--------|
 D|----0--0--0--0-----------------------------------------------------------------|
 A|---------------------3--3--3--3----------------------------------0--0--0-------|
 D|----------------------------------------3--3--3--3--3------2--2----------------|

 


 


 [Verse] 


 (2x)


 

 
 e|-----0--1--3--1-0-----1-----1--1-0-------0-----0-------------------------------|
 B|--3------------3-3-3-----3--------3-1-3-----3-----3--3-3-3--3--3--3--3---------|
 G|---2--2--2--2-------2--2--2--2---------2--2--2--2--2------2--2--2--2--2--------|
 D|----0--0--0--0-----------------------------------------------------------------|
 A|---------------------3--3--3--3----------------------------------0--0--0-------|
 D|----------------------------------------3--3--3--3--3------2--2----------------|
 e|-----0--1--3--1-0-----1-----1--0-1-0-----0-----0-------------------------------|
 B|--3------------3-3-3-----3----------3-3-----3-----3--3-3-3--3--3--3--3---------|
 G|---2--2--2--2-------2--2--2--2---------2--2--2--2--2------2--2--2--2--2--------|
 D|----0--0--0--0-----------------------------------------------------------------|
 A|---------------------3--3--3--3----------------------------------0--0--0-------|
 D|----------------------------------------3--3--3--3--3------2--2----------------|
 e|-----0--1--3--1-0-----1--------------------------------------------------------|
 B|--3------------3-3-3------3~---------------------------------------------------|
 G|---2--2--2--2-------2--2--2~---------------------------------------------------|
 D|----0--0--0--0------------x----------------------------------------------------|
 A|---------------------3--3-3~---------------------------------------------------|
 D|-------------------------------------------------------------------------------|

 


 


 [Cborus] 


 


 (Good God!, what have i done!?...) (2x)


 

 
 e|-------------------------------------------------------------------------------------------------------|
 B|-------------------------------------------------------------------------------------------------------|
 G|---------------------5-7-5-------------------------------------------------------------------------5---|
 D|-----3-----------5-7-------7-5---5-7--7----10-7-5-0-3-5--5-------------------------------5-----7-------|
 A|-3-5-0-5-3/5-5-8---------------8-5-7--7----10-7-5-0-3-5--5-------------8-----7-----8-------------------|
 D|-0-0-0-0-0-0-0-0-----------------5-7--7----10-7-5-0-3-5--5--3-5b-5-3-0---0-0---0-0---0-0---0-0---0-----|
 e|-----------------------------------------|
 B|-----------------------------------------|
 G|------------------------------5----------|
 D|--------------------5-----7--------------|
 A|--8-----7-----8--------------------------|
 D|----0-0---0-0---0-0---0-0---0------------|

 


 


 [Solo] 


 


 

 
 e|--------10-10-----------------15~--13~------------------------------------------------...|
 B|-10-10--10-10-13b--13b-13-10------------10-13-10----10--------------------------------...|
 G|-12-12b----12------------------------------------12----12-10-12-10----10--------------...|
 D|-------------------------------------------------------------------12----12-10-12-10--...|
 A|--------------------------------------------------------------------------------------...|
 D|--------------------------------------------------------------------------------------...|
 e|...---------------------------------------------------------------------------...|
 B|...-------12-10----------12-10--10----10-10-10----10-10-10----10-10-10--------...|
 G|...-------12-10----------12-10--10----10-10-10-12-10-10-10-12-10-10-10--------...|
 D|...-10-12-------10-12-10-----------12----------12----------12----------12\----...|
 A|...---------------------------------------------------------------------------...|
 D|...---------------------------------------------------------------------------...|
 e|...-----------------------------------------------------------------------------------------------------...|
 B|...-----------------------13----13--------------------------13----13--------------------------13----13--...|
 G|...----------10-12-14-15b----14----14----------10-12-14-15b----14----14----------10-12-14-15b----14-----...|
 D|...-10-12-12--------------------------10-12-12--------------------------10-12-12-----------------------12\-|
 A|...-----------------------------------------------------------------------------------------------------...|
 D|...-----------------------------------------------------------------------------------------------------...|
 e|...---------------------------------------------------------------------------|
 B|...--15b-15-15-13-15-13----13-------10-15~------------------------------------|
 G|...---------------------14----12-10-10----------------------------------------|
 D|...---------------------------12-10-------------------------------------------|
 A|...---------------------------------------------------------------------------|
 D|...---------------------------------------------------------------------------|

 


 


 [After Solo] 


 


 

 
 e|-----0--1--3--1-0-----1-----1--0-1-0-----0-----0-------------------------------|
 B|--3------------3-3-3-----3----------3-3-----3-----3--3-3-3--3--3--3--3---------|
 G|---2--2--2--2-------2--2--2--2---------2--2--2--2--2------2--2--2--2--2--------|
 D|----0--0--0--0-----------------------------------------------------------------|
 A|---------------------3--3--3--3----------------------------------0--0--0-------|
 D|----------------------------------------3--3--3--3--3------2--2----------------|
 e|-----0--1--3--1-0-----1--------------------------------------------------------|
 B|--3------------3-3-3------3~---------------------------------------------------|
 G|---2--2--2--2-------2--2--2~---------------------------------------------------|
 D|----0--0--0--0------------x----------------------------------------------------|
 A|---------------------3--3-3~---------------------------------------------------|
 D|-------------------------------------------------------------------------------|

 


 


 [Cborus] 


 


 (Good God!, what have i done!?...) (2x)


 

 
 e|-------------------------------------------------------------------------------------------------------|
 B|-------------------------------------------------------------------------------------------------------|
 G|---------------------5-7-5-------------------------------------------------------------------------5---|
 D|-----3-----------5-7-------7-5---5-7--7----10-7-5-0-3-5--5-------------------------------5-----7-------|
 A|-3-5-0-5-3/5-5-8---------------8-5-7--7----10-7-5-0-3-5--5-------------8-----7-----8-------------------|
 D|-0-0-0-0-0-0-0-0-----------------5-7--7----10-7-5-0-3-5--5--3-5b-5-3-0---0-0---0-0---0-0---0-0---0-----|

 


 


 [Outro] 


 


 (2x)


 

 
 e|--------------------------------------------------|
 B|-3-----------10----------8------------------------|
 G|-2-----------9-----------7-----------5------------|
 D|-0--(16x)----7--(16x)----5--(16x)----3--(16x)-----|
 A|-0-----------7-----------5-----------0------------|
 D|-0-----------7-----------5-----------0------------|

 


 


 (2x)


 

 
 e|-------------------------------------------------------------------------------------|
 B|-3-----------------10-------------------8--------------------------------------------|
 G|-2----------5-5-7--9--------------------7--------------------5----------5-5-7--------|
 D|-0--(9x)-----------7--(9x)----10-10-12--5--(9x)----10-10-12--3--(9x)-----------------|
 A|-0-----------------7--------------------5--------------------0-----------------------|
 D|-0-----------------7--------------------5--------------------0-----------------------| 


Important: The song above is NOT stored on the Chordie server. The original song is hosted at www.azchords.com. Chordie works as a search engine and provides on-the-fly formatting. Chordie does not index songs against artists'/composers' will. To remove this song please click here.

This song is displayed as text-only. Transposing and tuning is only available for chordpro-songs.
Rate #1 of 1 versions

Login - add to songbook

SHARE PAGE  




You need to log in to post comments