Guitar Tabs, Chords and Lyrics
Login is temporarily disabled for some users. Do not panic. Will be back in an hour or two. DO NOT REREGISTER!!


The Crutch   Billy Talent

 
 e|--------------------------------|
 B|--------------------------------|
 G|--------------------------------|
 D|------5---------------5---------|x4
 A|----------3---0-----------------|
 D|3-4-5---5-3---0-3-4-5-----------|
 e|--------------------------------|
 B|--------------------------------|
 G|3-----------5---6---------------|
 D|3-----------5---6-------6-------|
 A|1-----------3---4-------6-------|
 D|------------------------6-------|

 


 


 [Verse 1] 


 


 

 
 E|--------------------------------|--------------------------------|
 B|--------------------------------|--------------------------------|
 G|--------------------------------|--------------------------------|
 D|------5---------------5---------|------5---------------5---------|
 A|----------3---0-----------------|----------3---0-----------------|
 D|3-4-5---5-3---0-3-4-5-----------|3-4-5---5-3---0-3-4-5-----------|
 E|--------------------------------|--------------------------------|
 B|--------------------------------|--------------------------------|
 G|3-----------5---6---------------|--------------------------------|
 D|3-----------5---6-------6-------|------5---------------5---------|
 A|1-----------3---4-------6-------|----------3---0-----------------|
 D|------------------------6-------|3-4-5---5-3---0-3-4-5-----------|
 E|--------------------------------|--------------------------------|
 B|--------------------------------|--------------------------------|
 G|--------------------------------|--------------------------------|
 D|------5---------------5---------|------5---------------5---------|
 A|----------3---0-----------------|----------3---0-----------------|
 D|3-4-5---5-3---0-3-4-5-----------|3-4-5---5-3---0-3-4-5-----------|
 E|--------------------------------|--------------------------------|
 B|--------------------------------|--------------------------------|
 G|3-----------5---6---------------|--------------------------------|
 D|3-----------5---6-------6-------|------5-------------------------|
 A|1-----------3---4-------6-------|----------3---0-----------------|
 D|------------------------6-------|3-4-5---5-3---0-3-4-5---5-5---5-|

 


 


 [Pre-Cborus] 


 


 

 
 E|--------------------------------|--------------------------------|
 B|8-------------------------------|8-------------------------------|
 G|5-------------------------------|--------------------------------|
 D|--------------------------------|8-------------------------------|
 A|6-------------------------------|5-------------------------------|
 D|--------------------5---5-5---5-|--------------------5---5-5---5-|
 E|--------------------------------|--------------------------------|
 B|3-------------------------------|4-------------------------------|
 G|--------------------------------|--------------------------------|
 D|3-------------------------------|5-------------------------------|
 A|1-------------------------------|3-------------------------------|
 D|--------------------5---5-5---5-|--------------------5---5-5---5-|
 E|--------------------------------|--------------------------------|
 B|8-------------------------------|8-------------------------------|
 G|5-------------------------------|--------------------------------|
 D|--------------------------------|8-------------------------------|
 A|6-------------------------------|5-------------------------------|
 D|--------------------5---5-5---5-|--------------------5---5-5---5-|
 E|--------------------------------|--------------------------------|
 B|3-----------------------6-6-6-6-|4-4-4-4-4-4-4-4-----------------|
 G|--------------------------------|--------------------------------|
 D|3-----------------------7-7-7-7-|5-5-5-5-5-5-5-5-----------------|
 A|1-----------------------5-5-5-5-|3-3-3-3-3-3-3-3-----------------|
 D|--------------------------------|--------------------------------|

 


 


 [Cborus] 


 


 

 
 E|--------------------------------|--------------------------------|
 B|--------------------------------|--------------------------------|
 G|--------------------------------|--------------------------------|
 D|5-----------------------8-------|6-------------------------------|
 A|5-----------------------8-------|6-------------------------------|
 D|5-----------------------8-------|6-------------------------------|
 E|--------------------------------|--------------------------------|
 B|--------------------------------|--------------------------------|
 G|3-----------5---6---------------|--------------------------------|
 D|3-----------5---6-------6-------|5-------------------------------|
 A|1-----------3---4-------6-------|5-------------------------------|
 D|------------------------6-------|5-------------------------------|
 E|--------------------------------|--------------------------------|
 B|--------------------------------|--------------------------------|
 G|--------------------------------|--------------------------------|
 D|5-----5-5-----5-5---5-5-8-------|6-----6-6-6---6-6---6---1-------|
 A|5-----5-5-----5-5---5-5-8-------|6-----6-6-6---6-6---6---1-------|
 D|5-----5-5-----5-5---5-5-8-------|6-----6-6-6---6-6---6---1-------|
 E|--------------------------------|--------------------------------|
 B|--------------------------------|--------------------------------|
 G|3-----------5---6---------------|--------------------------------|
 D|3-----------5---6-------6-------|5-------5-----5---3---3---------|
 A|1-----------3---4-------6-------|5-------5-----------5---5-4-3-1-|
 D|------------------------6-------|5-------5-----------------------|

 


 


 [Interlude] 


 


 

 
 e|--------------------------------|
 B|--------------------------------|
 G|--------------------------------|
 D|------5---------------5---------|x3
 A|----------3---0-----------------|
 D|3-4-5---5-3---0-3-4-5-----------|
 e|--------------------------------|
 B|--------------------------------|
 G|3-----------5---6---------------|
 D|3-----------5---6-------6-------|
 A|1-----------3---4-------6-------|
 D|------------------------6-------|

 


 


 [Verse 2] 


 


 

 
 E|--------------------------------|--------------------------------|
 B|--------------------------------|--------------------------------|
 G|--------------------------------|--------------------------------|
 D|------5---------------5---------|------5---------------5---------|
 A|----------3---0-----------------|----------3---0-----------------|
 D|3-4-5---5-3---0-3-4-5-----------|3-4-5---5-3---0-3-4-5-----------|
 E|--------------------------------|--------------------------------|
 B|--------------------------------|--------------------------------|
 G|3-----------5---6---------------|--------------------------------|
 D|3-----------5---6-------6-------|------5---------------5---------|
 A|1-----------3---4-------6-------|----------3---0-----------------|
 D|------------------------6-------|3-4-5---5-3---0-3-4-5-----------|
 E|--------------------------------|--------------------------------|
 B|--------------------------------|--------------------------------|
 G|--------------------------------|--------------------------------|
 D|------5---------------5---------|------5---------------5---------|
 A|----------3---0-----------------|----------3---0-----------------|
 D|3-4-5---5-3---0-3-4-5-----------|3-4-5---5-3---0-3-4-5-----------|
 E|--------------------------------|--------------------------------|
 B|--------------------------------|--------------------------------|
 G|3-----------5---6---------------|--------------------------------|
 D|3-----------5---6-------6-------|------5-------------------------|
 A|1-----------3---4-------6-------|----------3---0-----------------|
 D|------------------------6-------|3-4-5---5-3---0-3-4-5---5-5---5-|

 


 


 [Pre-Cborus] 


 


 

 
 E|--------------------------------|--------------------------------|
 B|8-------------------------------|8-------------------------------|
 G|5-------------------------------|--------------------------------|
 D|--------------------------------|8-------------------------------|
 A|6-------------------------------|5-------------------------------|
 D|--------------------5---5-5---5-|--------------------5---5-5---5-|
 E|--------------------------------|--------------------------------|
 B|3-------------------------------|4-------------------------------|
 G|--------------------------------|--------------------------------|
 D|3-------------------------------|5-------------------------------|
 A|1-------------------------------|3-------------------------------|
 D|--------------------5---5-5---5-|--------------------5---5-5---5-|
 E|--------------------------------|--------------------------------|
 B|8-------------------------------|8-------------------------------|
 G|5-------------------------------|--------------------------------|
 D|--------------------------------|8-------------------------------|
 A|6-------------------------------|5-------------------------------|
 D|--------------------5---5-5---5-|--------------------5---5-5---5-|
 E|--------------------------------|--------------------------------|
 B|3-----------------------6-6-6-6-|4-4-4-4-4-4-4-4-----------------|
 G|--------------------------------|--------------------------------|
 D|3-----------------------7-7-7-7-|5-5-5-5-5-5-5-5-----------------|
 A|1-----------------------5-5-5-5-|3-3-3-3-3-3-3-3-----------------|
 D|--------------------------------|--------------------------------|

 


 


 [Cborus] 


 


 

 
 E|--------------------------------|--------------------------------|
 B|--------------------------------|--------------------------------|
 G|--------------------------------|--------------------------------|
 D|5-----------------------8-------|6-------------------------------|
 A|5-----------------------8-------|6-------------------------------|
 D|5-----------------------8-------|6-------------------------------|
 E|--------------------------------|--------------------------------|
 B|--------------------------------|--------------------------------|
 G|3-----------5---6---------------|--------------------------------|
 D|3-----------5---6-------6-------|5-------------------------------|
 A|1-----------3---4-------6-------|5-------------------------------|
 D|------------------------6-------|5-------------------------------|
 E|--------------------------------|--------------------------------|
 B|--------------------------------|--------------------------------|
 G|--------------------------------|--------------------------------|
 D|5-----5-5-----5-5---5-5-8-------|6-----6-6-6---6-6---6---1-------|
 A|5-----5-5-----5-5---5-5-8-------|6-----6-6-6---6-6---6---1-------|
 D|5-----5-5-----5-5---5-5-8-------|6-----6-6-6---6-6---6---1-------|
 E|--------------------------------|--------------------------------|
 B|--------------------------------|--------------------------------|
 G|3-----------5---6---------------|--------------------------------|
 D|3-----------5---6-------6-------|5-------5-----5---3---3---------|
 A|1-----------3---4-------6-------|5-------5-----------5---5-4-3-1-|
 D|------------------------6-------|5-------5-----------------------|

 


 


 [Bridge A] 


 


 

 
 E|--------------------------------|--------------------------------|
 B|6-----6-6-----6-6---6---6-------|--------------------------------|
 G|6-----6-6-----6-6---6---6-------|--------------------------------|
 D|5-----5-5-----5-5---5---5-------|5-----5-5-5---5-5---3-5-8-------|
 A|6-----6-6-----6-6---6---6-------|5-----5-5-5---5-5---3-5-8-------|
 D|--------------------------------|5-----5-5-5---5-5---3-5-8-------|
 E|--------------------------------|-----------------------------------|
 B|6-----6-6-----6-6---6---6-------|-----------------------------------|
 G|6-----6-6-----6-6---6---6-------|-----------------------------------|
 D|5-----5-5-----5-5---5---5-------|5-----5-5-5----------------8-------|
 A|6-----6-6-----6-6---6---6-------|5-----5-5-5-----10-10-8-10-8-------|
 D|--------------------------------|5-----5-5-5----------------8-------|
 E|--------------------------------|--------------------------------|
 B|6-----6-6-----6-6---6---6-------|--------------------------------|
 G|6-----6-6-----6-6---6---6-------|--------------------------------|
 D|5-----5-5-----5-5---5---5-------|5-----5-5-5---5-5---3-5-8-------|
 A|6-----6-6-----6-6---6---6-------|5-----5-5-5---5-5---3-5-8-------|
 D|--------------------------------|5-----5-5-5---5-5---3-5-8-------|
 E|--------------------------------|---------------------------------|
 B|6-----6-6-----6-6---6---6-------|4-4-4-4-4-4-4-4-4-4--------------|
 G|5-----5-5-----5-5---5---5-------|--------------------5b6br5-3-----|
 D|4-----4-4-----4-4---4---4-------|5-5-5-5-5-5-5-5-5-5----------5-3-|
 A|5-----5-5-----5-5---5---5-------|3-3-3-3-3-3-3-3-3-3--------------|
 D|--------------------------------|---------------------------------|

 


 


 [Solo, Rbytbm-Gtr] 


 


 

 
 E|--------------------------------|--------------------------------|
 B|--------------------------------|--------------------------------|
 G|--------------------------------|--------------------------------|
 D|------5---------------5---------|------5---------------5---------|
 A|----------3---0-----------------|----------3---0-----------------|
 D|3-4-5---5-3---0-3-4-5-----------|3-4-5---5-3---0-3-4-5-----------|
 E|--------------------------------|--------------------------------|
 B|--------------------------------|--------------------------------|
 G|3-----------5---6---------------|--------------------------------|
 D|3-----------5---6-------6-------|------5---------------5---------|
 A|1-----------3---4-------6-------|----------3---0-----------------|
 D|------------------------6-------|3-4-5---5-3---0-3-4-5-----------|
 E|--------------------------------|--------------------------------|
 B|--------------------------------|--------------------------------|
 G|--------------------------------|--------------------------------|
 D|------5---------------5---------|------5---------------5---------|
 A|----------3---0-----------------|----------3---0-----------------|
 D|3-4-5---5-3---0-3-4-5-----------|3-4-5---5-3---0-3-4-5-----------|
 E|--------------------------------|--------------------------------|
 B|--------------------------------|--------------------------------|
 G|3-----------5---6---------------|--------------------------------|
 D|3-----------5---6-------6-------|------5-------5---3---3---------|
 A|1-----------3---4-------6-------|----------3-0-------5---5-4-3-1-|
 D|------------------------6-------|3-4-5---5-3-0-------------------|

 


 


 [Solo, Solo-Gtr (66 - 73)] 


 


 

 
 E|-------3-------------------------|
 B|3----3---6-3---3-6-3---3-6-3---3-|
 G|5b6----------6-------6-------6---|
 D|---------------------------------|
 A|---------------------------------|
 E|---------------------------------|
 E|------------------------------------|
 B|6-3---3-6-3---3-6-3-5b6br5-3--------|
 G|----6-------6-------5b6br5-3--5p3p0-|
 D|------------------------------------|
 A|------------------------------------|
 E|------------------------------------|
 E|------------------------------------|
 B|5--3--------------------------------|
 G|5--3--------------------------------|
 D|------5p3p0-------------5~----------|
 A|------------5--4--3--1--------------|
 D|------------------------------------|
 E|-----------------------15h18p15-----|
 B|-----------------15h18----------18--|
 G|------------------------------------|
 D|------------------------------------|
 A|------------------------------------|
 E|------------------------------------|
 E|-18b20----18--15-----------------15-|
 B|--------------------13h15/18--18----|
 G|------------------------------------|
 D|------------------------------------|
 A|------------------------------------|
 E|------------------------------------|
 E|-----------------------------------------------|
 B|18h15----15----------17-15-----------15-18-----|
 G|------17----17h15----17-15-----------15-17b18--|
 D|------------------17--------17p15h17-----------|
 A|-----------------------------------------------|
 E|-----------------------------------------------|
 E|----------------------------------------|
 B|18-----17--15------17-----15------------|
 G|17b18--17--15------17b18--15------------|
 D|---------------17-------------17p15-17--|
 A|----------------------------------------|
 E|----------------------------------------|
 E|----------------------------------------|
 B|---------15-15--15--15--15--------------|
 G|---------15-15--15--15--15-15h17p15-----|
 D|--15h17-----------------------------17--|
 A|----------------------------------------|
 E|----------------------------------------|

 


 


 [Bridge B] 


 


 

 
 E|--------------------------------|--------------------------------|
 B|6-----6-6-----6-6---6---6-------|--------------------------------|
 G|6-----6-6-----6-6---6---6-------|--------------------------------|
 D|5-----5-5-----5-5---5---5-------|5-----5-5-5---5-5---3-5-8-------|
 A|6-----6-6-----6-6---6---6-------|5-----5-5-5---5-5---3-5-8-------|
 D|--------------------------------|5-----5-5-5---5-5---3-5-8-------|
 E|--------------------------------|-----------------------------------|
 B|6-----6-6-----6-6---6---6-------|-----------------------------------|
 G|6-----6-6-----6-6---6---6-------|-----------------------------------|
 D|5-----5-5-----5-5---5---5-------|5-----5-5-5----------------8-------|
 A|6-----6-6-----6-6---6---6-------|5-----5-5-5-----10-10-8-10-8-------|
 D|--------------------------------|5-----5-5-5----------------8-------|
 E|--------------------------------|--------------------------------|
 B|6-----6-6-----6-6---6---6-------|--------------------------------|
 G|6-----6-6-----6-6---6---6-------|--------------------------------|
 D|5-----5-5-----5-5---5---5-------|5-----5-5-5---5-5---3-5-8-------|
 A|6-----6-6-----6-6---6---6-------|5-----5-5-5---5-5---3-5-8-------|
 D|--------------------------------|5-----5-5-5---5-5---3-5-8-------|
 E|--------------------------------|--------------------------------|
 B|6-----6-6-----6-6---6---6-------|4-4-4-4-4-4-4-4-4---------------|
 G|5-----5-5-----5-5---5---5-------|--------------------------------|
 D|4-----4-4-----4-4---4---4-------|5-5-5-5-5-5-5-5-5---------------|
 A|5-----5-5-----5-5---5---5-------|3-3-3-3-3-3-3-3-3---------------|
 D|--------------------------------|--------------------------------|

 


 


 [Cborus] 


 


 

 
 E|--------------------------------|--------------------------------|
 B|--------------------------------|--------------------------------|
 G|--------------------------------|--------------------------------|
 D|5-----5-5-5---5-5---5-5-8-------|6-----6-6-6---6-6---6---1-------|
 A|5-----5-5-5---5-5---5-5-8-------|6-----6-6-6---6-6---6---1-------|
 D|5-----5-5-5---5-5---5-5-8-------|6-----6-6-6---6-6---6---1-------|
 E|--------------------------------|--------------------------------|
 B|--------------------------------|--------------------------------|
 G|3-----------5---6---------------|--------------------------------|
 D|3-----------5---6-------6-------|5-------5-----5---3---3---------|
 A|1-----------3---4-------6-------|5-------5-----------5---5-4-3-1-|
 D|------------------------6-------|5-------5-----------------------|
 E|--------------------------------|--------------------------------|
 B|--------------------------------|--------------------------------|
 G|--------------------------------|--------------------------------|
 D|5-----5-5-5---5-5---3-5-8-------|6-----6-6-6---6-6---6---1-------|
 A|5-----5-5-5---5-5---3-5-8-------|6-----6-6-6---6-6---6---1-------|
 D|5-----5-5-5---5-5---3-5-8-------|6-----6-6-6---6-6---6---1-------|
 E|--------------------------------|--------------------------------|
 B|--------------------------------|--------------------------------|
 G|3-----------5---6---------------|--------------------------------|
 D|3-----------5---6-------6-------|5-------5-----5---5-3-5-8-------|
 A|1-----------3---4-------6-------|5-------5-----5---5-3-5-8-------|
 D|------------------------6-------|5-------5-----5---5-3-5-8-------|
 E|--------------------------------|--------------------------------|
 B|--------------------------------|--------------------------------|
 G|7-----7-7-7---7-7---7-7-10------|8-----8-8-8---8-8---8---8-------|
 D|5-----5-5-5---5-5---5-5-8-------|6-----6-6-6---6-6---6---8-------|
 A|5-----5-5-5---5-5---5-5-8-------|6-----6-6-6---6-6---6---6-------|
 D|5-----5-5-5---5-5---5-5-8-------|6-----6-6-6---6-6---6-----------|
 E|--------------------------------|--------------------------------|
 B|--------------------------------|--------------------------------|
 G|3-----------5---6---------------|--------------------------------|
 D|3-----------5---6-------6-------|5-------5-----5---3---3---------|
 A|1-----------3---4-------6-------|5-------5-----------5---5-4-3-1-|
 D|------------------------6-------|5-------5-----------------------|
 E|--------------------------------|--------------------------------|
 B|--------------------------------|--------------------------------|
 G|7-----7-7-7---7-7---7-7-10------|8-----8-8-8---8-8---8---8-------|
 D|5-----5-5-5---5-5---5-5-8-------|6-----6-6-6---6-6---6---8-------|
 A|5-----5-5-5---5-5---5-5-8-------|6-----6-6-6---6-6---6---6-------|
 D|5-----5-5-5---5-5---5-5-8-------|6-----6-6-6---6-6---6-----------|
 E|--------------------------------|--------------------------------|
 B|--------------------------------|--------------------------------|
 G|3-----------5---6---------------|--------------------------------|
 D|3-----------5---6-------6-------|5-------5-----5---3---3---------|
 A|1-----------3---4-------6-------|5-------5-----------5---5-4-3-1-|
 D|------------------------6-------|5-------5-----------------------|

 


 


 [Outro] 


 


 

 
 E|--------------------------------|--------------------------------|
 B|--------------------------------|--------------------------------|
 G|--------------------------------|--------------------------------|
 D|------5---------------5---------|------5---------------5---------|x3
 A|----------3---0-----------------|----------3---0-----------------|
 D|3-4-5---5-3---0-3-4-5-----------|3-4-5---5-3---0-3-4-5-----------| 


Important: The song above is NOT stored on the Chordie server. The original song is hosted at www.azchords.com. Chordie works as a search engine and provides on-the-fly formatting. Chordie does not index songs against artists'/composers' will. To remove this song please click here.

This song is displayed as text-only. Transposing and tuning is only available for chordpro-songs.
Rate #1 of 1 versions

Jango Player

Login - add to songbook

SHARE PAGE  




You need to log in to post comments