Guitar Tabs, Chords and Lyrics
Server problems seems to be fixed. Chordie has been experiencing problems with songs disappearing. These issues now seems to be fixed, but still verifying the fix. If you find anything strange, please email admin@chordie.com.


Plans  Birds of Tokyo

Hey everyone. This is my first tab so feel free to give some constructive
This tab contains the chords and what sounds like the main lines.
In my version of playing this song all chords are barred.
Chords-
Verse 1:
[D] [D#]We made plans [A#]to kiss t[D]he sun at [D#]night[A#]
[D] [D#]Hopeless dream[A#]ers, hope[D]less types[D#] [A#]
[D] [D#]Shedding skin [A#]you show [D]your beaut[D#]y scars[A#]
[D] [D#]Don't forget m[A#]e or who [D]you are [D#] [A#]
Chorus:
[G] Y[D#]ou [A#]know [G]this don't [D#]feel [A#]right
[G] W[D#]ho [A#]knows [D#]what we feel?
Verse 2:
[D] [D#]I just [A#]met you I[D] can rea[D#]d your thoughts[A#]
[D] [D#]What t[A#]hey tell me is [D]wha[D#]t I want[A#]
[D] I'll k[D#]eep you guess[A#]ing keep y[D]ou wanting mor[D#]e[A#]
[D] [D#]'Cos where we're going no [A#]one k[D]nows [D#] [A#]
Chorus:
[G]Yo[D#]u k[A#]now t[G]his don't f[D#]eel r[A#]ight
[G] W[D#]ho [A#]knows [G]this could [D#]feel [A#]right
[G] See [D#]I just [A#]met you, I [G]swear I [D#]read your [A#]thoughts
[G] [D#]So don'[A#]t forget me or w[G]hat you [D#]want [A#]
Bridge:
[Cm]Light up the stage, make your move, give me something
[Cm]So I can dance in your light and to your rhythm
[Cm]Soon it unfolds who we are in this masquerade of stars
[Cm]Tear off the mask, the face you hide is what I'm missing
Verse 3:
[D] [D#]We made [A#]plans to [G]kiss the [D#]sun at[A#] night
[G] [D#]Hopeless [A#]dreamers, [G]hopeless [D#]type[A#]s
[G] [D#]One was t[A#]urning, [G]one was [D#]standing [A#]still
[G] [D#]I won't f[A#]orget what was [G]promised[D#] here [A#]
Chorus:
[D]Yo[D#]u k[A#]now t[G]his don't [D#]feel [A#]right
[D]Wh[D#]o k[A#]nows [D]what we fe[D#]el?[A#]
TAB-
Intro:
 
 e|-------------------| |-------------------------|
 B|-------------------| |-------------------------|
 G|-------------------| |-------------------------|
 D|-------------------| x3 |-------------------------|
 A|----5---6----------| |---5---3-----------------|
 E|------------6--6---| |-----------6--6----------|

Verse 1:
 
 e|------------------|
 B|------------------|
 G|------------------|
 D|------------------| x8
 A|--5---6-----------|
 E|----------6--6----|

Chorus:
 
 e|---------------------------------------------------|
 B|---------------------------------------------------|
 G|---------------------------------------------------|
 D|---------------------------------------------------|
 A|--10---6--------10---6--------10---6--------10~----|
 E|---------6--6----------6--6----------6--5----------|

Verse 2:
 
 e|------------------|
 B|------------------|
 G|------------------|
 D|------------------| x8
 A|--5---6-----------|
 E|----------6--6----|

Chorus:
 
 e|----------------------------------------------------------|
 B|----------------------------------------------------------|
 G|----------------------------------------------------------|
 D|----------------------------------------------------------|
 A|--10---6--------10---6--------10---6--------10---6--------|
 E|---------6--6----------6--6----------6--5----------6--6---|

Send-off to Bridge:
 
 e|-------------------------------|
 B|-------------------------------|
 G|-------------------------------|
 D|-------------------------------|
 A|--5---6---------5---6----------|
 E|---------6--6----------6--6----|

Bridge:
[Cm]  
Verse:
 
 e|-----------------| |-------------------|
 B|-----------------| |-------------------|
 G|-----------------| |-------------------|
 D|-----------------| x1 |-------------------| X7
 A|---5---6---------| |---10---6----------|
 E|----------6---6--| |-----------6---6---|

Chorus:
 
 e|-------------------------------------------------------------|
 B|-------------------------------------------------------------|
 G|-------------------------------------------------------------|
 D|-------------------------------------------------------------|
 A|---5---6---------10---6---------5---6---------5---6----------|
 E|---------6---6----------6---6---------6---6---------6---6----|


Important: The song above is NOT stored on the Chordie server. The original song is hosted at www.azchords.com. Chordie works as a search engine and provides on-the-fly formatting. Chordie does not index songs against artists'/composers' will. To remove this song please click here.

Text color:
Chord color:
Chord grids: 
Font size:    
Page size: 

A# Cm D D# G
Rate #3 of 11 versions

Jango Player

Login - add to songbook

SHARE PAGE  



You need to log in to post comments