Guitar Tabs, Chords and Lyrics
Major upgrade!! After one year development the new version of Chordie is now online! Please give feedback.


Violet  Birds of Tokyo

This probably needs a bit of work still was up late one night figured i'd give it a go.
Timing and etc won't be perfect but its the basic chord progression the song goes
along with the notes for the intro and solo part (it sounds about right :P).
Cheers
Standard Tuning
-Intro-
Acoustic
[D]Lead[Bm] [C#]
1st Time
 
 e|-9-9-7-12--9-9-7-9--9-9-7-12--14-12-10-9-|

2nd Time
 
 e|-9-9-7-12--9-9-7-9--9-9-7-12--14-12-10-5-|

-Verse-
[D]For arguements sake,
[Bm] Lets say that we did[C#]
[D]Tell me what would you want,[Bm]
With just one [C#]wish.
-Chorus-
Yo[Bm]u take m[D]y breath
a[Bm]way.... a[C#]gain
Yo[Bm]u take m[D]y breath
a[Bm]way.... a[C#]gain
-Bridge bit-
You[Bm] take m[D]y breath, my breath, my breath, my bre[Bm]aieth.
my breath, my breath, my bre[D]aieth.
my breath, my breath, my bre[Bm]aieth.
my breath, my breath, you take m[D]y breath
you take my br[Bm]eath
you take my br[D]eath
you take my br[Bm]eath.
-Solo-
 
 |-10--10--14~---12~---9~--9--9-----9-------------------------------|x2
 |---10--10---10----10---10-10--10----10--7--5-7-5-7-7~~------------|
 |------------------------------------------------------------------|
 |------------------------------------------------------------------|
 |------------------------------------------------------------------|
 |------------------------------------------------------------------|

Enjoy

Important: The song above is NOT stored on the Chordie server. The original song is hosted at www.azchords.com. Chordie works as a search engine and provides on-the-fly formatting. Chordie does not index songs against artists'/composers' will. To remove this song please click here.

Text color:
Chord color:
Chord grids: 
Font size:    
Page size: 

Bm C# D
Rate #1 of 1 versions

Jango Player

Login - add to songbook

SHARE PAGE  




You need to log in to post comments