Guitar Tabs, Chords and Lyrics
Server problems seems to be fixed. Chordie has been experiencing problems with songs disappearing. These issues now seems to be fixed, but still verifying the fix. If you find anything strange, please email admin@chordie.com.


Everything Went Black  The Black Dahlia Murder

The Black Dahlia Murder
All Guitars Tuned to C Standard
Guitar Solo
Gtr III
TP TP
H.. E H H
 
 |-------------------------|--------------------|
 |-/16tr17-------------16\-|-/20-------21-------|
 |-------------------------|--------------------|
 |-------------------------|--------------------|
 |-------------------------|--------------------|
 |-------------------------|--------------------|

|
| Gtrs I, II
| PM| PM| PM PM| PM| PM
| E E E E E E E E E E E E E E E E
 
 |-------------------------|--------------------|
 |-------------------------|--------------------|
 |-------------------------|--------------------|
 |---6---------------8-----|---6------------8---|
 |-------------6-----------|---------6----------|
 |---------4-4---4-4----4--|-----4-4----4-4---4-|

W W
 
 |----------------------|-19b21---------------|
 |-21tr23---------------|---------------------|
 |----------------------|---------------------|
 |----------------------|---------------------|
 |----------------------|---------------------|
 |----------------------|---------------------|

|
| PM| PM| PM PM| PM| PM
| E E E E E E E E E E E E E E E E
 
 |----------------------|---------------------|
 |----------------------|---------------------|
 |--4-------------------|---------------------|
 |------------6---------|--9--------6---------|
 |------------------7---|-----------------7---|
 |--------0-0---0-0---0-|-------0-0---0-0---0-|
 |---3---| |---3---| |---3---| |---3---|

[E] [E] [E] [E] [E] [E] [E] [E] [E] [E] [E] [E]  
 
 |---------------------------------------------|
 |---------------------------------------------|
 |-21p20---18-20p18------18--------------------|
 |--------------------21----21---20p18-20---21p|
 |---------------------------------------------|
 |---------------------------------------------|

|
 
 | PM---| PM---| PM

| E E E E E E E E
 
 |---------------------------------------------|
 |---------------------------------------------|
 |---------------------------------------------|
 |--6--------------------------------8---------|
 |------------------6--------------------------|
 |-------4-----4----------4----4----------4----|
 |---3---| |---3---| |---3---| |---3---|

[E] [E] [E] [E] [E] [E] [E] [E] [E] [E] [E] [E]  
 
 |---------------------------------------------|
 |---------------------------------------------|
 |---------------------------------------------|
 |-20p18---17h18p17------17--------------------|
 |--------------------19----19---18p16-18p==16-|
 |---------------------------------------------|

|
 
 | PM---| PM---| PM

| E E E E E E E E
 
 |---------------------------------------------|
 |---------------------------------------------|
 |---------------------------------------------|
 |--6--------------------------------8---------|
 |------------------6--------------------------|
 |-------4-----4----------4----4----------4----|

~~
 
 |---3---| |---3---| |---3---| |---3---|

E E E E E E E E E E E E W
 
 |---------------------------------------------|------------------|
 |---------------------------------------------|------------------|
 |---------------------------------------------|------------------|
 |---------------------------------------------|------------------|
 |---------------------------------------------|------------------|
 |-19h21---19p18-19p==18-16h18---16p15S12---15S|=11---------------|

|
 
 | PM---| PM---| PM PM| PM| PM

| E E E E E E E E E E E E E E E E
 
 |---------------------------------------------|------------------|
 |---------------------------------------------|------------------|
 |---------------------------------------------|------------------|
 |--9---------------6--------------------------|--9-----6---------|
 |-----------------------------------7---------|--------------7---|
 |-------0-----0----------0----0----------0----|----0-0---0-0---0-|

S S S S S S S S S S S S S S S S
 
 |-------------------------------------------------|
 |-17-17-17-17-14-14-14-14-16-16-16-16-------------|
 |-------------------------------------16-16-16-16-|
 |-------------------------------------------------|
 |-------------------------------------------------|
 |-------------------------------------------------|

|
| E E E E E E E E
 
 |-------------------------------------------------|
 |-------------------------------------------------|
 |-------------------------------------------------|
 |-------------------------------------------------|
 |-------------------------------------------------|
 |-12p====9-----0----11p====7-----0-----9p====6----|

S S S S S S S S S S S S S S S S
 
 |-------------------------------------------------|
 |-------------------------------------------------|
 |-18-18-18-18-15-15-15-15-16-16-16-16-------------|
 |-------------------------------------18-18-18-18-|
 |-------------------------------------------------|
 |-------------------------------------------------|

|
| E E E E E E E E
 
 |-------------------------------------------------|
 |-------------------------------------------------|
 |-------------------------------------------------|
 |-------------------------------------------------|
 |-------------------------------------------------|
 |--0-----6p====3-----0-----4p====3-----0h====3----|

E E S S E E E E E E E E E E E E E
 
 |----------------------------|--------------------------|
 |----------------------------|--------------------------|
 |----------------------------|--------------------------|
 |-20p18-17h18p17----17-------|--------------------------|
 |----------------19----19p18-|-19p=18S16p14-13h14-13h14-|
 |----------------------------|--------------------------|

|
| W +W
 
 |----------------------------|--------------------------|
 |----------------------------|--------------------------|
 |----------------------------|--------------------------|
 |----------------------------|--------------------------|
 |--6-------------------------|-(6)----------------------|
 |--4-------------------------|-(4)----------------------|

~~~
H. S S E E E E E E E E E
 
 |--------------------------|-------------------------|
 |--------------------------|-------------------------|
 |--------------------------|-------12h13-15p13-12h13-|
 |--------------------------|-13h14-------------------|
 |-16--------------13h14-16-|-------------------------|
 |--------------------------|-------------------------|

|
| PM PM PM PM
| E E E E E E E E E E E E E E E E
 
 |--------------------------|-------------------------|
 |--------------------------|-------------------------|
 |--------------------------|-------------------------|
 |--------------------------|-------------------------|
 |--------------------------|-------------------------|
 |-16p12-0-15p11-0-11p====9-|-11p=9--0-12p=9--0-15p12-|

S S S S S S S S S S S S S S S S H H W
 
 |-------------------------------------------------|--------------|----------|
 |-------------------------------------------------|--------------|-14-------|
 |-15h16-15h16-15h16-15h16-15h16-15h16-15h16-15p13-|-15-----13----|-16b18----|
 |-------------------------------------------------|--------------|----------|
 |-------------------------------------------------|--------------|----------|
 |-------------------------------------------------|--------------|----------|

|
| W +W W
 
 |-------------------------------------------------|--------------|----------|
 |-------------------------------------------------|--------------|----------|
 |-------------------------------------------------|--------------|----------|
 |-------------------------------------------------|--------------|----------|
 |--6----------------------------------------------|-(6)----------|--5-------|
 |--4----------------------------------------------|-(4)----------|--3-------|

~~~ ~~~~~~~~~~~~~~~~~~~~~~~~~~~~~~~~~
Q Q Q S S S S H. Q H. Q +H. Q
 
 |----------11--11h12-11p9-|-11-------12--|-11-----------11---|-(11)------/15--|
 |-14---14-----------------|--------------|-------------------|----------------|
 |-------------------------|--------------|-------------------|----------------|
 |-------------------------|--------------|-------------------|----------------|
 |-------------------------|--------------|-------------------|----------------|
 |-------------------------|--------------|-------------------|----------------|

|
| +Q Q Q Q W E E E E E E E E W
 
 |-------------------------|--------------|-------------------|----------------|
 |-------------------------|--------------|-------------------|----------------|
 |-------------------------|--------------|-------------------|----------------|
 |-------------------------|--------------|-------------------|----------------|
 |-(5)---5---5---2---------|--6-----------|--2p1---1h2--------|---6------------|
 |-(3)---3---3---0---------|--4-----------|------3-----4h=6p4-|---6------------|

~~~
 
 |---------------3----------------|

W E E E E E E E E E E E E
 
 |-15-------------|-16p15----15-------------------------|
 |----------------|-------17----17p16-17p16-14h16-14p12-|
 |----------------|-------------------------------------|
 |----------------|-------------------------------------|
 |----------------|-------------------------------------|
 |----------------|-------------------------------------|

|
| +Q E E Q Q W
 
 |----------------|-------------------------------------|
 |----------------|-------------------------------------|
 |----------------|-------------------------------------|
 |----------------|-------------------------------------|
 |-(6)--9-9-9--8--|--6----------------------------------|
 |-(6)--7-7-7--6--|--4----------------------------------|
 |-------------------3--------------------|

[E] [E] [E] [E] [E] [E] [E] [E] [E] [E] [E] [E]  
 
 |---------------------------------------------|
 |-14p12---11h12p11--------------11------------|
 |--------------------13p12h13------13p12------|
 |------------------------------------------14-|
 |---------------------------------------------|
 |---------------------------------------------|

|
| E E E E E E E E
 
 |---------------------------------------------|
 |---------------------------------------------|
 |---------------------------------------------|
 |---------------------------------------------|
 |--2p===1-------------------------------------|
 |-------------4h===6-----7p===4-----6p===4----|
 |---------------3----------------|

[E] [E] [E] [E] [E] [E] [E] [E] [E] [E] [E] [E]  
 
 |-------------------------------------|
 |-------------------------------------|
 |-12----------------------------------|
 |----14p13-14p13-11h13p11----11-------|
 |-------------------------14----14p13-|
 |-------------------------------------|

|
| W
 
 |-------------------------------------|
 |-------------------------------------|
 |-------------------------------------|
 |--6----------------------------------|
 |--4----------------------------------|
 |-------------------------------------|
 |----------------3----------------| |---------------3----------------|

[E] [E] [E] [E] [E] [E] [E] [E] [E] [E] [E] [E] [E] [E] [E] [E] [E] [E] [E] [E] [E] [E] [E] [E]  
 
 |--------------------------------------|-------------------------------------|
 |--------------------------------------|-------------------------------------|
 |--------------------12h13-15p13p12----|-13p12----12----------------12h13h15-|
 |-----------11h13-14----------------14-|-------14----14p13-11h13-14----------|
 |-11h=13-14----------------------------|-------------------------------------|
 |--------------------------------------|-------------------------------------|

|
| +H H H H
 
 |--------------------------------------|-------------------------------------|
 |--------------------------------------|-------------------------------------|
 |--------------------------------------|-------------------------------------|
 |-(6)----------------------------------|-------------------------------------|
 |-(4)----------------------------------|--------------------6----------------|
 |---------------------6----------------|--7-----------------4----------------|
 |----------------3----------------|

[E] [E] [E] [E] [E] [E] [E] [E] [E] [E] [E] [E]  
 
 |--------------------------------------|
 |-----------------------------12h14-16h|
 |-16p=15-13h15p13-12h13p12-15----------|
 |--------------------------------------|
 |--------------------------------------|
 |--------------------------------------|

|
| +H H
 
 |--------------------------------------|
 |--------------------------------------|
 |--------------------------------------|
 |--------------------------------------|
 |-(6)-----------------2----------------|
 |-(4)----------------------------------|

~~
 
 |------3-------|

E E E E E E H Q Q Q Q
 
 |----15-16p15----16h18----|-19---18------/20b22--||
 |-17----------17----------|----------16----------||
 |-------------------------|----------------------||
 |-------------------------|----------------------||
 |-------------------------|----------------------||
 |-------------------------|----------------------||

|
| W +W
 
 |-------------------------|----------------------||
 |-------------------------|----------------------||
 |-------------------------|----------------------||
 |-------------------------|----------------------||
 |--2----------------------|-(2)------------------||
 |--0----------------------|-(0)------------------||

hold the last bend.

Important: The song above is NOT stored on the Chordie server. The original song is hosted at www.azchords.com. Chordie works as a search engine and provides on-the-fly formatting. Chordie does not index songs against artists'/composers' will. To remove this song please click here.

Text color:
Chord color:
Chord grids: 
Font size:    
Page size: 

E
Rate #1 of 2 versions

Login - add to songbook

SHARE PAGE  




You need to log in to post comments