Guitar Tabs, Chords and Lyrics
Major upgrade!! After one year development the new version of Chordie is now online! Please give feedback.


Great Burning Nullifier   The Black Dahlia Murder

 
 ----------------------|
 ----------------------|
 -5-4------------------|
 -X-X---2--------------|
 -3-2---3----3-3-3-3---|
 -----0------4-4-4-4---|

 


 * * * * *


 R


 

 
 ----------------------|
 ----------------------|
 ----------------------|
 -------2--------------|
 -3-2---3----3-3-3-3---|
 -1-0-0------4-4-4-4---|

 


 * * * * *


 


 


 L


 

 
 ---------------------------------------------------------------------------------------|
 ---------------------------------------------------------------------------------------|
 -4-5-4---------------------------------------------------------------------2/5-4\1-----|
 -2-3-2----------------------------------7---------6--------------3-----2-----------3-2-|
 -2/3-2-2-------------------------------------------------------------------------------|
 -------0-0-0-444-0-0-111-444-777-0-4-5-----0-4-5----0-3-4-0-0-1-----0----0-------------|

 


 * * *** * * *** *** *** * * * * * * * * * * * *


 R


 

 
 ---------------------------------------------------------------------------------------|
 ---------------------------------------------------------------------------------------|
 -4-5-4---------------------------------------------------------------------------------|
 -2-3-2----------------------------------7---------6--------------3-----2---3/7-6\2-----|
 -2/3-2-2---------------------------------------------------------------------------3-2-|
 -------0-0-0-444-0-0-111-444-777-0-4-5-----0-4-5----0-3-4-0-0-1-----0----0-------------|

 


 * * *** * * *** *** *** * * * * * * * * * * * *


 


 


 0:09


 


 

 
 ------------------------------------------------------------------|
 ------------------------------------------------------------------|
 -5-4-5-8----------------------------------------------------------|
 -3-2-3-6----------------------------------------------------------|
 -3\2-3/6----------------------------------------------------------|
 ---------4-4-004-0-0-111-444-777-444-0-444-0-444-0-888-8-777-555--|

 


 * * *** * * *** *** *** *** * *** * *** * *** * *** ***


 


 


 0:14


 


 L


 

 
 ---_------------------------------------------------------------------------------------|
 --/ \-----------------------------------------------------------------------------------|
 1211-10-8-------------------------------------------------------------------2/5-4\1-----|
 10-9-10-6--------------------------------7---------6--------------3-----2-----------3-2-|
 10\9/10-6-------------------------------------------------------------------------------|
 ----------4-4-444-0-0-111-444-777-0-4-5-----0-4-5----0-3-4-0-0-1-----0----0-------------|

 


 * * *** * * *** *** *** * * * * * * * * * * * *


 R


 

 
 ---_------------------------------------------------------------------------------------|
 --/ \-----------------------------------------------------------------------------------|
 1211-10-8-------------------------------------------------------------------------------|
 10\9/10-6--------------------------------7---------6--------------3-----2---3/7-6\2-----|
 10\9/10-6---------------------------------------------------------------------------3-2-|
 ----------4-4-444-0-0-111-444-777-0-4-5-----0-4-5----0-3-4-0-0-1-----0----0-------------|

 


 * * *** * * *** *** *** * * * * * * * * * * * *


 


 0:20


 


 

 
 ------------------------------------------------------------------|
 ------------------------------------------------------------------|
 -4-5-4------------------------------------------------------------|
 -2-3-2------------------------------------------------------------|
 -2/3-2-2----------------------------------------------------------|
 -------0-0-0-444-0-0-111-444-777-444-0-444-0-444-0-888-8-777-555--|

 


 * * *** * * *** *** *** *** * *** * *** * *** * *** ***


 


 


 


 0:26


 


 

 
 -------------------------------------------------------------------|
 -------------------------------------------------------------------|
 -------------------------------------------------------------------|
 ------------------------------3---------------7-3-6----------------|
 ----------------------------------------------------7-3-2-3-2------|
 -11111-0-0-0-11111-0-0-0-1111-----11111-0-0-0-----------------5-4--|

 


 * * * * * * *


 


 

 
 -------------------------------------------------------------------|
 -------------------------------------------------------------------|
 -------------------------------------------------------------------|
 ------------------------------3-------------3---0-2-------2-3-2----|
 --------------------------------------------3---0-2-3-2-3-2-3-2----|
 -11111-0-0-0-11111-0-0-0-1111-----11111-0-0---0-----------------4--|

 


 * * * * * * * * *


 


 


 0:36


 


 L


 

 
 --------------------------------------------------------------------|
 --------------------------------------------------------------------|
 --------------------------------------------------------------------|
 -------------------------------7--------------10-7-9----------------|
 -----------------------------------------------------10-7-5-7-5-----|
 -55555-4-4-4-55555-4-4-4-5555-----55555-4-4-4-------------------8-7-|

 


 * * * * * * *


 R


 

 
 -------------------------------------------------------------------|
 -------------------------------------------------------------------|
 -------------------------------------------------------------------|
 ------------------------------3---------------7-3-6----------------|
 ----------------------------------------------------7-3-2-3-2------|
 -11111-0-0-0-11111-0-0-0-1111-----11111-0-0-0-----------------5-4--|

 


 * * * * * * *


 


 L


 

 
 ---------------------------------------------------------|
 ---------------------------------------------------------|
 --------------------------------------------5---4--------|
 -------------------------------7------------3---2--------|
 --------------------------------------------3---2--------|
 -55555-4-4-4-55555-4-4-4-5555-----55555-4-4---0------0-0-|

 


 * * * * * * * *


 R


 

 
 ---------------------------------------------------------|
 ---------------------------------------------------------|
 --------------------------------------------5---4--------|
 ------------------------------3-------------3---2--------|
 --------------------------------------------3---2--------|
 -11111-0-0-0-11111-0-0-0-1111-----11111-0-0---0------0-0-|

 


 * * * * * * * *


 


 


 


 


 0:46


 


 L


 

 
 ---------------------------------------------------------------------------------------|
 ---------------------------------------------------------------------------------------|
 -4-5-4---------------------------------------------------------------------2/5-4\1-----|
 -2-3-2----------------------------------7---------6--------------3-----2-----------3-2-|
 -2/3-2-2-------------------------------------------------------------------------------|
 -------0-0-0-004-0-0-111-444-777-0-4-5-----0-4-5----0-3-4-0-0-1-----0----0-------------|

 


 * * *** * * *** *** *** * * * * * * * * * * * *


 R


 

 
 ---------------------------------------------------------------------------------------|
 ---------------------------------------------------------------------------------------|
 -4-5-4---------------------------------------------------------------------------------|
 -2-3-2----------------------------------7---------6--------------3-----2---3/7-6\2-----|
 -2/3-2-2---------------------------------------------------------------------------3-2-|
 -------0-0-0-444-0-0-111-444-777-0-4-5-----0-4-5----0-3-4-0-0-1-----0----0-------------|

 


 * * *** * * *** *** *** * * * * * * * * * * * *


 


 

 
 ------------------------------------------------------------------|
 ------------------------------------------------------------------|
 -5-4-5-8----------------------------------------------------------|
 -3-2-3-6----------------------------------------------------------|
 -3\2-3/6----------------------------------------------------------|
 ---------4-4-444-0-0-111-444-777-444-0-444-0-444-0-888-8-777-555--|

 


 * * *** * * *** *** *** *** * *** * *** * *** * *** ***


 


 


 


 0:58


 


 L


 

 
 ---_------------------------------------------------------------------------------------|
 --/ \-----------------------------------------------------------------------------------|
 1211-10-8-------------------------------------------------------------------2/5-4\1-----|
 10-9-10-6--------------------------------7---------6--------------3-----2-----------3-2-|
 10\9/10-6-------------------------------------------------------------------------------|
 ----------4-4-444-0-0-111-444-777-0-4-5-----0-4-5----0-3-4-0-0-1-----0----0-------------|

 


 * * *** * * *** *** *** * * * * * * * * * * * *


 R


 

 
 ---_------------------------------------------------------------------------------------|
 --/ \-----------------------------------------------------------------------------------|
 1211-10-8-------------------------------------------------------------------------------|
 10\9/10-6--------------------------------7---------6--------------3-----2---3/7-6\2-----|
 10\9/10-6---------------------------------------------------------------------------3-2-|
 ----------4-4-444-0-0-111-444-777-0-4-5-----0-4-5----0-3-4-0-0-1-----0----0-------------|

 


 * * *** * * *** *** *** * * * * * * * * * * * *


 


 L


 

 
 ---------------------------------------------------------------------------------|
 ---------------------------------------------------------------------------------|
 -4-5-4---------------------------------------------------------------------------|
 -2-3-2---------------------------------------------------------------------------|
 -2/3-2-2-----------------------------------------7-7-7-7-5-5-5-5-3-3-3-3-2-2-2-2-|
 -------0-0-0-444-0-0-111-444-777-444-0-444-0-444---------------------------------|

 


 * * *** * * *** *** *** *** * *** * ***


 R


 

 
 ---------------------------------------------------------------------------------|
 ---------------------------------------------------------------------------------|
 -4-5-4---------------------------------------------------------------------------|
 -2-3-2---------------------------------------------------------------------------|
 -2/3-2-2-------------------------------------------------------------------------|
 -------0-0-0-444-0-0-111-444-777-444-0-444-0-444-8-8-8-8-7-7-7-7-5-5-5-5-4-4-4-4-|

 


 * * *** * * *** *** *** *** * *** * ***


 


 


 


 


 1:09


 


 


 [1]  

 
 ---------------------------------------------------------------------------------------------|
 ---------------------------------------------------------------------------------------------|
 ---------------------------------------------------------------------------------------------|
 ---------------------------------------------------------------------------------------------|
 -7-7-7-7-7-7-7-7-7-7-7-7-7-7-7-7-7-------------3-3-3-3-3-3-3-3-3-3-3-3-3-3-3-3-3-------------|
 -5-5-5-5-5-5-5-5-5-5-5-5-5-5-5-5-5-555-444-555-4-4-4-4-4-4-4-4-4-4-4-4-4-4-4-4-4-444-333-444-|

 


 *** *** *** *** *** ***


 


 [2]  

 
 -------------------------------------------------------------------------------------------|
 -------------------------------------------------------------------------------------------|
 ---------------------10101010999910101010--------------------------------------------------|
 -77777777777777777777--------------------121212121212121212121212101010109999999999999999--|
 -------------------------------------------------------------------------------------------|
 -------------------------------------------------------------------------------------------|

 


 


 [1]  

 
 -----------------------------------------------------------------|
 -----------------------------------------------------------------|
 -----------------------------------------------------------------|
 -----------------------------------------------------------------|
 -3-3-3-3-3-3-3-3-3-3-3-3-3-3-3-3-3-3-3-3-3-3-3-3-3-3-3-3-3-3-3-3-|
 -1-1-1-1-1-1-1-1-1-1-1-1-1-1-1-1-1-1-1-1-1-1-1-1-1-1-1-1-1-1-1-1-|

 


 


 [2]  

 
 -----------------------------------------------------------------|
 -----------------------------------------------------------------|
 -----------------------------------------------------------------|

 


 1010101010101010101010101010101010101010101010101010101010101010-|


 

 
 -----------------------------------------------------------------|
 -----------------------------------------------------------------|

 


 


 [1]  

 
 -----------------------------------------------------------------|
 -----------------------------------------------------------------|
 -----------------------------------------------------------------|
 -9-9-9-9-9-9-9-9-9-9-9-9-9-9-9-9-5-5-5-5-5-5-5-5-5-5-5-5-5-5-5-5-|
 -7-7-7-7-7-7-7-7-7-7-7-7-7-7-7-7-5-5-5-5-5-5-5-5-5-5-5-5-5-5-5-5-|
 -7-7-7-7-7-7-7-7-7-7-7-7-7-7-7-7-3-3-3-3-3-3-3-3-3-3-3-3-3-3-3-3-|

 


 


 [2]  

 
 ------------------------------------------------------------------|
 ------------------------------------------------------------------|

 


 -1414141414141414141414141616161613131313131313131313131313131313-|


 

 
 ------------------------------------------------------------------|
 ------------------------------------------------------------------|
 ------------------------------------------------------------------|

 


 


 


 


 [1]  

 
 ---------------------------------------------------------------------------------------------|
 ---------------------------------------------------------------------------------------------|
 ---------------------------------------------------------------------------------------------|
 ---------------------------------------------------------------------------------------------|
 -7-7-7-7-7-7-7-7-7-7-7-7-7-7-7-7-7-------------3-3-3-3-3-3-3-3-3-3-3-3-3-3-3-3-3-------------|
 -5-5-5-5-5-5-5-5-5-5-5-5-5-5-5-5-5-555-444-555-4-4-4-4-4-4-4-4-4-4-4-4-4-4-4-4-4-444-333-444-|

 


 *** *** *** *** *** ***


 


 [2]  

 
 -------------------------------------------------------------------------------------------|
 -------------------------------------------------------------------------------------------|
 ---------------------10101010999910101010--------------------------------------------------|
 -77777777777777777777--------------------121212121212121212121212101010109999999999999999--|
 -------------------------------------------------------------------------------------------|
 -------------------------------------------------------------------------------------------|

 


 


 [1]  

 
 -----------------------------------------------------------------|
 -----------------------------------------------------------------|
 -----------------------------------------------------------------|
 -----------------------------------------------------------------|
 -3-3-3-3-3-3-3-3-3-3-3-3-3-3-3-3-3-3-3-3-3-3-3-3-3-3-3-3-3-3-3-3-|
 -1-1-1-1-1-1-1-1-1-1-1-1-1-1-1-1-1-1-1-1-1-1-1-1-1-1-1-1-1-1-1-1-|

 


 


 [2]  

 
 -----------------------------------------------------------------|
 -----------------------------------------------------------------|
 -----------------------------------------------------------------|

 


 1010101010101010101010101010101010101010101010101010101010101010-|


 

 
 -----------------------------------------------------------------|
 -----------------------------------------------------------------|

 


 


 [1]  

 
 -----------------------------------------------------------------|
 -----------------------------------------------------------------|
 -----------------------------------------------------------------|
 -9-9-9-9-9-9-9-9-9-9-9-9-9-9-9-9-5-5-5-5-5-5-5-5-5-5-5-5-5-5-5-5-|
 -7-7-7-7-7-7-7-7-7-7-7-7-7-7-7-7-5-5-5-5-5-5-5-5-5-5-5-5-5-5-5-5-|
 -7-7-7-7-7-7-7-7-7-7-7-7-7-7-7-7-3-3-3-3-3-3-3-3-3-3-3-3-3-3-3-3-|

 


 


 [2]  

 
 ------------------------------------------------------------------|
 ------------------------------------------------------------------|

 


 -1414141414141414141414141616161613131313131313131313131313131313-|


 

 
 ------------------------------------------------------------------|
 ------------------------------------------------------------------|
 ------------------------------------------------------------------|

 


 


 


 


 


 1:30


 


 L


 

 
 -------------------------------------------------------------------------------|
 -----------------------------------------------------_-------------_-----------|
 ----------------------------------------------------/ \-----_-----/ \-----__---|
 ---------------------------------------------------8-5-0---/ \--11-8-0---/ \--|
 -----------8-----8-7-8-7--------------------8------------10-7-0--------13-10-0-|
 -5-0-4-7-0---7-0-8-7-8-7-0-0-000--5-0-4-7-0---7-0------------------------------|

 


 * * * * * * * *** * * * * *


 R


 

 
 ---------------------------------------------------------------------------------|
 ---------------------------------------------------------------------------------|
 ------------------------------------------------------_-------------__-----------|
 -----------------------------------------------------/ \-----_-----/ \-----__---|
 -----------8-----8-7-8-7--------------------8------10-7-0---/ \--13-10-0---/ \--|
 -5-0-4-7-0---7-0-8-7-8-7-0-0-000--5-0-4-7-0---7-0---------12-9-0---------15-12-0-|

 


 * * * * * * * *** * * * * *


 


 L


 

 
 ------------------------------------------------------------------------|
 ------------------------------------------------------------------------|
 ------------------------------------------------------------------------|
 ------------------------------------------------------------------------|
 -----------8-----8-7-8-7---------3----3----3-777777333333---------------|
 -5-0-4-7-0---7-0-8-7-8-7-0-0-000-4-00-4-00-4-------------444444000000---|

 


 * * * * * * * *** ** ** ************************


 R


 

 
 ------------------------------------------------------------------------|
 ------------------------------------------------------------------------|
 ---------------------------------------------------------555555---------|
 ---------------------------------------------666666222222------666666---|
 -----------8-----8-7-8-7---------3----3----3----------------------------|
 -5-0-4-7-0---7-0-8-7-8-7-0-0-000-4-00-4-00-4----------------------------|

 


 * * * * * * * *** ** ** ************************


 


 


 


 1:40


 


 L


 

 
 -------------------------------------------------------------------------------|
 -----------------------------------------------------_-------------_-----------|
 ----------------------------------------------------/ \-----_-----/ \-----__---|
 ---------------------------------------------------8-5-0---/ \--11-8-0---/ \--|
 -----------8-----8-7-8-7--------------------8------------10-7-0--------13-10-0-|
 -5-0-4-7-0---7-0-8-7-8-7-0-0-000--5-0-4-7-0---7-0------------------------------|

 


 * * * * * * * *** * * * * *


 R


 

 
 ---------------------------------------------------------------------------------|
 ---------------------------------------------------------------------------------|
 ------------------------------------------------------_-------------__-----------|
 -----------------------------------------------------/ \-----_-----/ \-----__---|
 -----------8-----8-7-8-7--------------------8------10-7-0---/ \--13-10-0---/ \--|
 -5-0-4-7-0---7-0-8-7-8-7-0-0-000--5-0-4-7-0---7-0---------12-9-0---------15-12-0-|

 


 * * * * * * * *** * * * * *


 


 L


 

 
 -------------------------------------------------------------|
 -------------------------------------------------------------|
 -------------------------------------------------------------|
 -------------------------------------------------------------|
 -----------8-----8-7-8-7---------777777333333----------------|
 -5-0-4-7-0---7-0-8-7-8-7-0-0-000-------------444444000000-V--|

 


 * * * * * * * *** ************************


 R


 

 
 ---------------------------------------------------------------|
 ---------------------------------------------------------------|
 ---------------------------------------------555555------------|
 ---------------------------------666666222222------666666------|
 -----------8-----8-7-8-7---------------------------------------|
 -5-0-4-7-0---7-0-8-7-8-7-0-0-000---------------------------4V--|

 


 * * * * * * * *** ************************


 


 


 


 


 1:51


 


 SOLO


 


 [)] [(]  

 
 -17-----16~/-----16/--------------------------|
 -------------18-------17-18~~/-15-17----------|
 -------------------------------------16~~-----|
 ----------------------------------------------|
 ----------------------------------------------|
 ----------------------------------------------|

 


 


 ______________


 / \ ___________


 

 
 -17-19-20-23-20-19-17---/ \------_________________-----|
 ----------T-----------18-15-17-22-17-15---/ \----|
 --------------------------------T-------17-14-16-17-21-17-16-14--|
 -----------------------------------------------------T-----------|
 -----------------------------------------------------------------|
 -----------------------------------------------------------------|
 -----------------------------------------------------------------------|
 ----___________--------------------------------------------------------|
 ---/ \------_________________--------------------------------|
 -15-12-14-19-14-12---/ \------__________________-------|
 -----------T-------15-12-14-15-19-15-14-12---/ \------|
 --------------------------------T----------13-10-12-17-12-10-17-12-10--|

 


 T T


 


 ______________ )~~


 

 
 -------------___________------/ \---18-----|
 ----__------/ \---17-20-17-20-23-20-17--------|
 ---/ \---15-18-15-18-21-18--------------T--------------|
 -14-17-14--------------T--------------------------------|
 --------------------------------------------------------|
 --------------------------------------------------------|

 


 


 


 2:02


 


 ___________ _____ ________ ___________


 / \ / \ / \ / \ ___________


 

 
 -13-15-17-15-13\12-13-15-12\10-12-13-12-10----10-12-13-12-10------/ \--|
 -------------------------------------------13----------------13-10-12-13-12-10\9-|
 ---------------------------------------------------------------------------------|
 ---------------------------------------------------------------------------------|
 ---------------------------------------------------------------------------------|
 ---------------------------------------------------------------------------------|

 


 


 _______


 

 
 ---/ \-----________------________-------------------------------------------------------|
 -10-12-10-9-----/ \----/ \-----__________---------------------------------------|
 ------------10-7-9-10-9-7----7-9-10-9-7-----/ \----_________-------------------------|
 --------------------------10------------10-7-9-10-9-7\6----/ \----_________________---|
 --------------------------------------------------------8-5-7-8-7-5------/ \ -|
 --------------------------------------------------------------------8-7-5-7-8-7-5\4-0-5-0-5-0-|

 


 


 2:06


 


 

 
 --------------------------------------------------------________------_-----|
 -----------------------_______-----------_____---------/ \----/ \----|
 ---------_____--------/ \----_----/ \-------7-9-10-9-7----7-9-10--|
 ---_----/ \---^--6-7-9-7-6----/ \--6-7-9-7-6-9/10------------10---------|
 --/ \--5-7-8-7-5-7-8-----------8-5-7-8--------------------------------------|
 -5-7-8----------------------------------------------------------------------|

 


 _____ __ ________


 ____________ __ / \ / \ / \


 

 
 --/ \----/ \-----10-12-10----------12-13-12----12/13-17-13----|
 -9-10-12-10-9------9-10-12------------13-13/15----------15-------------17-|
 --------------10-9--------------------------------------------------------|
 --------------------------------------------------------------------------|
 --------------------------------------------------------------------------|
 --------------------------------------------------------------------------|

 


 ________


 / \


 

 
 -16-19-22-19-16--------------|
 --------T-------18-15--------|
 ----------------------16-----|
 -------------------------18--|
 -----------------------------|
 -----------------------------|

 


 


 


 


 RYTHM DURING SOLO


 


 

 
 --------------------------------------------------------|
 --------------------------------------------------------|
 --------------------------------------------------------|
 --------------------------------------------------------|
 -3--2--3333-2--3--2--3333-2--7--6--7777-6--7--3--7777-3-|
 -1--0--1111-0--1--0--1111-0--5--4--5555-4--5--1--5555-1-|

 


 * * **** * * * **** * * * **** * * * **** *


 


 

 
 --------------------------------------------------|
 --------------------------------------------------|
 --------------------------------------------------|
 -----------------------------7--6----10--9-----6--|
 -3--2--3333-2--3--2--3333-2--x--x-----x--x-----x--|
 -1--0--1111-0--1--0--1111-0--5--4--0--8--7--0--4--|

 


 * * **** * * * **** * * *


 


 


 

 
 --------------------------------------------------------|
 --------------------------------------------------------|
 --------------------------------------------------------|
 --------------------------------------------------------|
 -3--2--3333-2--3--2--3333-2--7--6--7777-6--7--3--7777-3-|
 -1--0--1111-0--1--0--1111-0--5--4--5555-4--5--1--5555-1-|

 


 * * **** * * * **** * * * **** * * * **** *


 


 

 
 -----------------------------------------------------|
 -----------------------------------------------------|
 -----------------------------------------------------|
 -----------------------------------------------------|
 -3--2--3333-2--3--2--3333-2----------------------7-6-|
 -1--0--1111-0--1--0--1111-0--11110000000044444---5-4-|

 


 * * **** * * * **** * |


 


 


 


 


 


 2:12


 


 

 
 -------------------------------------------------------------------|
 -------------------------------------------------------------------|
 -------------------------------------------------------------------|
 ------------------------------3---------------7-3-6----------------|
 ----------------------------------------------------7-3-2-3-2------|
 -11111-0-0-0-11111-0-0-0-1111-----11111-0-0-0-----------------5-4--|

 


 * * * * * * *


 


 

 
 -------------------------------------------------------------------|
 -------------------------------------------------------------------|
 -------------------------------------------------------------------|
 ------------------------------3-------------3----2--------2-3-2----|
 --------------------------------------------3----2--3-2-3-2-3-2----|
 -11111-0-0-0-11111-0-0-0-1111-----11111-0-0---0-----------------4--|

 


 * * * * * * * * *


 


 


 L


 

 
 --------------------------------------------------------------------|
 --------------------------------------------------------------------|
 --------------------------------------------------------------------|
 -------------------------------7--------------10-7-9----------------|
 -----------------------------------------------------10-7-5-7-5-----|
 -55555-4-4-4-55555-4-4-4-5555-----55555-4-4-4-------------------8-7-|

 


 * * * * * * *


 R


 

 
 -------------------------------------------------------------------|
 -------------------------------------------------------------------|
 -------------------------------------------------------------------|
 ------------------------------3---------------7-3-6----------------|
 ----------------------------------------------------7-3-2-3-2------|
 -11111-0-0-0-11111-0-0-0-1111-----11111-0-0-0-----------------5-4--|

 


 * * * * * * *


 


 L


 

 
 -----------------------------------------------------------------------|
 -----------------------------------------------------------------------|
 -----------------------------------------------------------------------|
 -------------------------------7---------------------------------------|
 -----------------------------------------------------------------------|
 -55555-4-4-4-55555-4-4-4-5555-----55555-4-4-4-888855557777888810101010-|

 


 * * * * * *


 R


 

 
 --------------------------------------------------------------------|
 --------------------------------------------------------------------|
 --------------------------------------------------------------------|
 ------------------------------3-------------------------------------|
 --------------------------------------------------------------------|
 -11111-0-0-0-11111-0-0-0-1111-----11111-0-0-0-77774444555577778888--|

 


 * * * * * *


 


 


 


 2:34


 


 [1]  

 
 ---------------------------------------------------------------------------------------------|
 ---------------------------------------------------------------------------------------------|
 ---------------------------------------------------------------------------------------------|
 ---------------------------------------------------------------------------------------------|
 -7-7-7-7-7-7-7-7-7-7-7-7-7-7-7-7-7-------------3-3-3-3-3-3-3-3-3-3-3-3-3-3-3-3-3-------------|
 -5-5-5-5-5-5-5-5-5-5-5-5-5-5-5-5-5-555-444-555-4-4-4-4-4-4-4-4-4-4-4-4-4-4-4-4-4-444-333-444-|

 


 *** *** *** *** *** ***


 


 [2]  

 
 -------------------------------------------------------------------------------------------|
 -------------------------------------------------------------------------------------------|
 ---------------------10101010999910101010--------------------------------------------------|
 -77777777777777777777--------------------121212121212121212121212101010109999999999999999--|
 -------------------------------------------------------------------------------------------|
 -------------------------------------------------------------------------------------------|

 


 


 [1]  

 
 -----------------------------------------------------------------|
 -----------------------------------------------------------------|
 -----------------------------------------------------------------|
 -----------------------------------------------------------------|
 -3-3-3-3-3-3-3-3-3-3-3-3-3-3-3-3-3-3-3-3-3-3-3-3-3-3-3-3-3-3-3-3-|
 -1-1-1-1-1-1-1-1-1-1-1-1-1-1-1-1-1-1-1-1-1-1-1-1-1-1-1-1-1-1-1-1-|

 


 


 [2]  

 
 -----------------------------------------------------------------|
 -----------------------------------------------------------------|
 -----------------------------------------------------------------|

 


 1010101010101010101010101010101010101010101010101010101010101010-|


 

 
 -----------------------------------------------------------------|
 -----------------------------------------------------------------|

 


 


 [1]  

 
 -----------------------------------------------------------------|
 -----------------------------------------------------------------|
 -----------------------------------------------------------------|
 -9-9-9-9-9-9-9-9-9-9-9-9-9-9-9-9-5-5-5-5-5-5-5-5-5-5-5-5-5-5-5-5-|
 -7-7-7-7-7-7-7-7-7-7-7-7-7-7-7-7-5-5-5-5-5-5-5-5-5-5-5-5-5-5-5-5-|
 -7-7-7-7-7-7-7-7-7-7-7-7-7-7-7-7-3-3-3-3-3-3-3-3-3-3-3-3-3-3-3-3-|

 


 


 [2]  

 
 ------------------------------------------------------------------|
 ------------------------------------------------------------------|

 


 -1414141414141414141414141616161613131313131313131313131313131313-|


 

 
 ------------------------------------------------------------------|
 ------------------------------------------------------------------|
 ------------------------------------------------------------------|

 


 


 


 


 


 [1]  

 
 ---------------------------------------------------------------------------------------------|
 ---------------------------------------------------------------------------------------------|
 ---------------------------------------------------------------------------------------------|
 ---------------------------------------------------------------------------------------------|
 -7-7-7-7-7-7-7-7-7-7-7-7-7-7-7-7-7-------------3-3-3-3-3-3-3-3-3-3-3-3-3-3-3-3-3-------------|
 -5-5-5-5-5-5-5-5-5-5-5-5-5-5-5-5-5-555-444-555-4-4-4-4-4-4-4-4-4-4-4-4-4-4-4-4-4-444-333-444-|

 


 *** *** *** *** *** ***


 


 [2]  

 
 -------------------------------------------------------------------------------------------|
 -------------------------------------------------------------------------------------------|
 ---------------------10101010999910101010--------------------------------------------------|
 -77777777777777777777--------------------121212121212121212121212101010109999999999999999--|
 -------------------------------------------------------------------------------------------|
 -------------------------------------------------------------------------------------------|

 


 


 [1]  

 
 -----------------------------------------------------------------|
 -----------------------------------------------------------------|
 -----------------------------------------------------------------|
 -----------------------------------------------------------------|
 -3-3-3-3-3-3-3-3-3-3-3-3-3-3-3-3-3-3-3-3-3-3-3-3-3-3-3-3-3-3-3-3-|
 -1-1-1-1-1-1-1-1-1-1-1-1-1-1-1-1-1-1-1-1-1-1-1-1-1-1-1-1-1-1-1-1-|

 


 


 [2]  

 
 -----------------------------------------------------------------|
 -----------------------------------------------------------------|
 -----------------------------------------------------------------|

 


 1010101010101010101010101010101010101010101010101010101010101010-|


 

 
 -----------------------------------------------------------------|
 -----------------------------------------------------------------|

 


 


 [1]  

 
 -----------------------------------------------------------------|
 -----------------------------------------------------------------|
 -----------------------------------------------------------------|
 -9-9-9-9-9-9-9-9-9-9-9-9-9-9-9-9-5-5-5-5-5-5-5-5-5-5-5-5-5-5-5-5-|
 -7-7-7-7-7-7-7-7-7-7-7-7-7-7-7-7-5-5-5-5-5-5-5-5-5-5-5-5-5-5-5-5-|
 -7-7-7-7-7-7-7-7-7-7-7-7-7-7-7-7-3-3-3-3-3-3-3-3-3-3-3-3-3-3-3-3-|

 


 


 [2]  

 
 ------------------------------------------------------------------|
 ------------------------------------------------------------------|

 


 -1414141414141414141414141616161613131313131313131313131313131313-|


 

 
 ------------------------------------------------------------------|
 ------------------------------------------------------------------|
 ------------------------------------------------------------------|

 


 


 


 


 [1]  

 
 ---------------------------------------------------------------------------------------------|
 ---------------------------------------------------------------------------------------------|
 ---------------------------------------------------------------------------------------------|
 ---------------------------------------------------------------------------------------------|
 -7-7-7-7-7-7-7-7-7-7-7-7-7-7-7-7-7-------------3-3-3-3-3-3-3-3-3-3-3-3-3-3-3-3-3-------------|
 -5-5-5-5-5-5-5-5-5-5-5-5-5-5-5-5-5-555-444-555-4-4-4-4-4-4-4-4-4-4-4-4-4-4-4-4-4-444-333-444-|

 


 *** *** *** *** *** ***


 


 [2]  

 
 -------------------------------------------------------------------------------------------|
 -------------------------------------------------------------------------------------------|
 ---------------------10101010999910101010--------------------------------------------------|
 -77777777777777777777--------------------121212121212121212121212101010109999999999999999--|
 -------------------------------------------------------------------------------------------|
 -------------------------------------------------------------------------------------------|

 


 


 [1]  

 
 -----------------------------------------------------------------|
 -----------------------------------------------------------------|
 -----------------------------------------------------------------|
 -----------------------------------------------------------------|
 -3-3-3-3-3-3-3-3-3-3-3-3-3-3-3-3-3-3-3-3-3-3-3-3-3-3-3-3-3-3-3-3-|
 -1-1-1-1-1-1-1-1-1-1-1-1-1-1-1-1-1-1-1-1-1-1-1-1-1-1-1-1-1-1-1-1-|

 


 


 [2]  

 
 -----------------------------------------------------------------|
 -----------------------------------------------------------------|
 -----------------------------------------------------------------|

 


 1010101010101010101010101010101010101010101010101010101010101010-|


 

 
 -----------------------------------------------------------------|
 -----------------------------------------------------------------|

 


 


 [1]  

 
 -----------------------------------------------------------------|
 -----------------------------------------------------------------|
 -----------------------------------------------------------------|
 -9-9-9-9-9-9-9-9-9-9-9-9-9-9-9-9-5-5-5-5-5-5-5-5-5-5-5-5-5-5-5-5-|
 -7-7-7-7-7-7-7-7-7-7-7-7-7-7-7-7-5-5-5-5-5-5-5-5-5-5-5-5-5-5-5-5-|
 -7-7-7-7-7-7-7-7-7-7-7-7-7-7-7-7-3-3-3-3-3-3-3-3-3-3-3-3-3-3-3-3-|

 


 


 [2]  

 
 ------------------------------------------------------------------|
 ------------------------------------------------------------------|

 


 -1414141414141414141414141616161613131313131313131313131313131313-|


 

 
 ------------------------------------------------------------------|
 ------------------------------------------------------------------|
 ------------------------------------------------------------------|

 


 


 


 


 


 [1]  

 
 ---------------------------------------------------------------------------------------------|
 ---------------------------------------------------------------------------------------------|
 ---------------------------------------------------------------------------------------------|
 ---------------------------------------------------------------------------------------------|
 -7-7-7-7-7-7-7-7-7-7-7-7-7-7-7-7-7-------------3-3-3-3-3-3-3-3-3-3-3-3-3-3-3-3-3-------------|
 -5-5-5-5-5-5-5-5-5-5-5-5-5-5-5-5-5-555-444-555-4-4-4-4-4-4-4-4-4-4-4-4-4-4-4-4-4-444-333-444-|

 


 *** *** *** *** *** ***


 


 [2]  

 
 -------------------------------------------------------------------------------------------|
 -------------------------------------------------------------------------------------------|
 ---------------------10101010999910101010--------------------------------------------------|
 -77777777777777777777--------------------121212121212121212121212101010109999999999999999--|
 -------------------------------------------------------------------------------------------|
 -------------------------------------------------------------------------------------------|

 


 


 [1]  

 
 -----------------------------------------------------------------|
 -----------------------------------------------------------------|
 -----------------------------------------------------------------|
 -----------------------------------------------------------------|
 -3-3-3-3-3-3-3-3-3-3-3-3-3-3-3-3-3-3-3-3-3-3-3-3-3-3-3-3-3-3-3-3-|
 -1-1-1-1-1-1-1-1-1-1-1-1-1-1-1-1-1-1-1-1-1-1-1-1-1-1-1-1-1-1-1-1-|

 


 


 [2]  

 
 -----------------------------------------------------------------|
 -----------------------------------------------------------------|
 -----------------------------------------------------------------|

 


 1010101010101010101010101010101010101010101010101010101010101010-|


 

 
 -----------------------------------------------------------------|
 -----------------------------------------------------------------|

 


 


 [1]  

 
 ----------------------|
 ----------------------|
 ----------------------|
 ----------------------|
 -3----6--2------------|
 -1----4--0------V-----|

 


 


 [2]  

 
 ----------------------|
 ----------------------|
 -14---16--13----------|
 --x----x---x----------|
 -12---14--11----V-----|
 ----------------------|


Important: The song above is NOT stored on the Chordie server. The original song is hosted at www.azchords.com. Chordie works as a search engine and provides on-the-fly formatting. Chordie does not index songs against artists'/composers' will. To remove this song please click here.

This song is displayed as text-only. Transposing and tuning is only available for chordpro-songs.
Rate #1 of 1 versions

Login - add to songbook

SHARE PAGE  



You need to log in to post comments