Guitar Tabs, Chords and Lyrics
Server problems seems to be fixed. Chordie has been experiencing problems with songs disappearing. These issues now seems to be fixed, but still verifying the fix. If you find anything strange, please email admin@chordie.com.


The Window  The Black Dahlia Murder

Black Dahlia Murder
Ritual
[D5/A]5 5 7 x x x
[E5/B]7 7 9 x x x
[F#5/C#]9 9 11 x x x
[A5]5 7 7 x x x
[Fm/Ab]4 8 6 x x x
[F#5]2 4 4 x x x
Gtr I (C F Bb Eb G C) - 'Rhythm Guitar I'
Gtr II (C F Bb Eb G C) - 'Rhythm Guitar II'
Gtr III (C F Bb Eb G C) - 'Lead Guitar I'
Gtr IV (C F Bb Eb G C) - 'Lead Guitar II'
Intro
Q=220
[F#5]  
[4/4] Gtrs I, II
 
 PM--------------------------------------------------------

S S E Q H Q S S e S S e S S e
 
 ||----------------------------|-------------------------------|
 ||o---------------------------|-------------------------------|
 ||----------------------------|-------------------------------|
 ||----------------------------|-------------------------------|
 ||o--4-4--4-------------------|-------------------------------|
 ||---2-2--2-------------------|--------2-2--2--2-2--2--2-2--2-|

|
| Gtr III
 
 | PM--------------------------------------------------------

| E E E E E E E E E E E E E E E E
 
 ||----------------------------|-------------------------------|
 ||o---------------------------|-------------------------------|
 ||----------------------------|-------------------------------|
 ||-/16---16-------14-14-------|-12-12---------11---11---------|
 ||o---------16-16-------14-14-|-------12---12---------11---11-|
 ||----------------------------|-------------------------------|

|
| Gtr IV
 
 | PM--------------------------------------------------------

| E E E E E E E E E E E E E E E E
 
 ||----------------------------|-------------------------------|
 ||o---------------------------|-------------------------------|
 ||---7----7--------6--6-------|--4--4----------2----2---------|
 ||-----------4--4--------4--4-|--------4----4----------2----2-|
 ||o---------------------------|-------------------------------|
 ||----------------------------|-------------------------------|
 --------------------------------------------------------|

S S E Q H Q S S e S S e S S e
 
 |---------------------------|---------------------------------|
 |---------------------------|---------------------------------|
 |---------------------------|---------------------------------|
 |---------------------------|---------------------------------|
 |--4-4--4-------------------|---------------------------------|
 |--2-2--2-------------------|--------2-2--2--2-2--2--2-2--2---|

|
 
 |--------------------------------------------------------|

| E E E E E E E E E E E E E E E E
 
 |---------------------------|---------------------------------|
 |---------------------------|---------------------------------|
 |---------------------------|---------------------------------|
 |-16---16-------14-14-------|-12-12---------11---11-----------|
 |---------16-16-------14-14-|-------12---12---------11---11---|
 |---------------------------|---------------------------------|

|
 
 |--------------------------------------------------------|

| E E E E E E E E E E E E E E E E
 
 |---------------------------|---------------------------------|
 |---------------------------|---------------------------------|
 |--7----7--------6--6-------|--4--4----------2----2-----------|
 |----------4--4--------4--4-|--------4----4----------2----2---|
 |---------------------------|---------------------------------|
 |---------------------------|---------------------------------|

[A5]  
 
 PM--------------------------------------------------------

S S E Q H Q S S e S S e S S e
 
 |---------------------------|-------------------------------|
 |---------------------------|-------------------------------|
 |---------------------------|-------------------------------|
 |---------------------------|-------------------------------|
 |--7-7--7-------------------|--------0-0--0--0-0--0--0-0--0-|
 |--5-5--5-------------------|-------------------------------|

|
 
 | PM----------------------------------------------------|

| E E E E E E E E E E E E E E E E
 
 |---------------------------|-------------------------------|
 |---------------------------|-------------------------------|
 |---------------------------|-------------------------------|
 |-18---18-------16-16-------|-14-14---------12---12---------|
 |---------16-16-------14-14-|-------12---12---------11---11-|
 |---------------------------|-------------------------------|

|
 
 | PM----------------------------------------------------|

| E E E E E E E E E E E E E E E E
 
 |---------------------------|-------------------------------|
 |---------------------------|-------------------------------|
 |--9----9--------7--7-------|--6--6----------4----4---------|
 |----------4--4--------4--4-|--------4----4----------2----2-|
 |---------------------------|-------------------------------|
 |---------------------------|-------------------------------|

1.
[B5/F#] [B5/F#] [G#m/B]  
 
 ------| PM------------| PM--|

S S E H S S E S S E Q S S E Q
 
 |-----------------------------|------------------------------||
 |-----------------------------|-----------------------------o||
 |-----------------------------|-----------------------4------||
 |----------4------------------|----------4------------6------||
 |--2-2--2--2-----------2-2--2-|--2-2--2--2----2-2--2--2-----o||
 |----------2------------------|----------2-------------------||

|
| PM PM PM PM PM PM PM
| E E E E E E E E E E E E E E E E
 
 |-----------------------------|------------------------------||
 |-----------------------------|-----------------------------o||
 |-11--------------------------|-\9---------------------------||
 |------12-14-11-12----11------|------11-12-9-11--------------||
 |------------------14------12-|-------------------12s14-----o||
 |-----------------------------|-------------------------16---||

|
| PM PM PM PM PM PM PM
| E E E E E E E E E E E E E E E E
 
 |-----------------------------|------------------------------||
 |-----------------------------|-----------------------------o||
 |--7----4--6-----4------------|--6-------4-------------------||
 |-------------7-----6--7----4-|-------7----6--7----4S=6------||
 |-----------------------------|--------------------------8--o||
 |-----------------------------|------------------------------||

2.
 
 PM--| PM-----------| PM--|

S S E H S S E S S E Q S S E Q
 
 |-------------------------|----------------------||
 |-------------------------|----------------------||
 |-------------------------|-------------------4--||
 |---------4---------------|---------3---------6--||
 |--2-2-2--2---------------|---------1---2-2-2-2--||
 |---------2---------2-2-2-|--1-1-1--1------------||

|
| Q Q +Q Q W
 
 |-------------------------|----------------------||
 |-------------------------|----------------------||
 |-13-----14--(14)S=11-----|-10-------------------||
 |--x------x---------x-----|--x-------------------||
 |-11-----12--(12)S==9-----|--8-------------------||
 |-------------------------|----------------------||

|
| Q Q +Q Q Q +Q H
 
 |-------------------------|----------------------||
 |-------------------------|----------------------||
 |-10-----11--(11)---------|----------------------||
 |--x------x---------4-----|--3-----(3)s=6--------||
 |--8------9---(9)---x-----|--x-------------------||
 |-------------------2-----|--1-----(1)s=4--------||

Verse I
$
Gtrs I, II Gtrs I, II
PM PM PM PM PM PM PM PM PM
[E] [E] [E] [E] [E] [E] [E] [E] [E] [E] [E] [E] [E] [E] [E] [E] [E] [E] [E] [E] [E] [E] [E] [E] [E] [E] [E] [E] [a] [E] [E] [E] [E]  
 
 ||------------------|-----------------|-----------------|-------------------|
 ||o-----------------|-----------------|-----------------|-------------------|
 ||------------------|-----------------|-----------------|-------------------|
 ||------------------|---7-------------|-----------------|---------4s7-------|
 ||o-5p4---4---5---4p|=0---4-0-5p4---4-|-5p4---4---5---4-|---5p4h5-----5p4h5-|
 ||------2---2---2---|-------------7---|-----2---2---2---|-2-----------------|

Gtr I
PM PM PM PM
E E E E E E E E E E S S E E E E E
 
 |-----------------------|--------------------------|
 |-----------------------|--------------------------|
 |-----------------------|---11--9h11p=9-----9------|
 |-/12p11---11---12---11-|---------------12----12p9h|
 |--------9----9----9----|-9------------------------|
 |-----------------------|--------------------------|

|
| Gtr II
| PM PM PM PM
| E E E E E E E E E E S S E E E E E
 
 |-----------------------|--------------------------|
 |-----------------------|--------------------------|
 |-----------------------|--------------------------|
 |--/9p=7-0--7-0--9-0--7-|-0-12-11h12p11--9h11s=9p6h|
 |-----------------------|--------------------------|
 |-----------------------|--------------------------|

1.
PM~~~~~~PM PM PM
[E] [E] [E] [E] [+E] [E] [E] [E] [E] [E] [+E] [E] [E] [E] [E] [E]  
 
 |---------------------|---------------------||
 |---------------------|--------------------o||
 |---------------------|-----------6-----6---||
 |-11p9---9-(9)---11p9-|---9-(9)-----9p6-----||
 |------7-------7------|-7-------7----------o||
 |---------------------|---------------------||

|
| PM~~~~~~PM PM PM
| E E E E +E E E E E E +E E E E E E
 
 |---------------------|---------------------||
 |---------------------|--------------------o||
 |---------------------|---------------------||
 |--7p6---6-(6)----7p6-|---6-(6)---7p6---7---||
 |------4-------4------|-4-------4-----7----o||
 |---------------------|---------------------||

2.
PM| PM PM----
[E] [E] [E] [E] [E] [E] [E] [E] [E] [E] [E] [E] [E] [E] [E] [E]  
 
 |----------------------|-10p7------------------|
 |----------------------|------9----------------|
 |----------------10----|--------10-------------|
 |--------11---11----11-|-----------/12p9-------|
 |-8h11p8----8----------|-----------------11----|
 |----------------------|--------------------11-|

|
| PM| PM PM----
| E E E E E E E E E E E E E E E E
 
 |----------------------|--7p4------------------|
 |----------------------|------6----------------|
 |-----------------6----|---------7-------------|
 |---------6----6-----6-|------------/9p6-------|
 |-4h=8p4----4----------|------------------7----|
 |----------------------|---------------------7S|

Pre-Chorus
Gtr I
 
 --------| PM PM PM PM PM

[E] [E] [E] [E] [E] [E] [E] [E] [E] [E] [E] [E] [E] [E] [E] [E]  
 
 ||----------------------|------------------|
 ||o---------------------|------------------|
 ||----------------------|---11---9---------|
 ||---------11---12---11-|------------------|
 ||o-9-12-9----9----9----|-0----0---0-9s8s9-|
 ||----------------------|------------------|

|
| Gtr II
 
 |--------| PM PM PM PM PM

| E E E E E E E E E E E E E E E E
 
 ||----------------------|------------------|
 ||o---------------------|------------------|
 ||----------------------|------------------|
 ||----------------------|----4---2---------|
 ||o---------4----5----4-|------------5s4s5-|
 ||--2--5-2----2----2----|-2----2---2-------|

PM---| PM PM PM
[E] [E] [E] [E] [E] [E] [E] [E] [E] [E] [E] [E] [E] [E] [E] [E]  
 
 |---------------------|-----------------|
 |---------------------|-----------------|
 |---------------------|-----------------|
 |--------11---12---11-|-----------4h7p4-|
 |-9-12-9----9----9----|-0-----3h6-------|
 |---------------------|---2h5-----------|

|
| PM---| PM PM PM
| E E E E E E E E E E E E E E Q
 
 |---------------------|-----------------|
 |---------------------|-----------------|
 |---------------------|---4s3s4s3s4s3---|
 |---------------------|---x-------------|
 |---------4----5----4-|---2s1s2s1s2s1---|
 |-2--5-2----2----2----|-2---------------|

PM---| PM PM PM PM PM
[E] [E] [E] [E] [E] [E] [E] [E] [E] [E] [E] [E] [E] [E] [E] [E]  
 
 |---------------------|------------------|
 |---------------------|------------------|
 |---------------------|---11---9---------|
 |--------11---12---11-|------------------|
 |-9-12-9----9----9----|-0----0---0-9s8s9-|
 |---------------------|------------------|

|
| PM---| PM PM PM PM PM
| E E E E E E E E E E E E E E E E
 
 |---------------------|------------------|
 |---------------------|------------------|
 |---------------------|------------------|
 |---------------------|----4---2---------|
 |---------4----5----4-|------------5s4s5-|
 |-2--5-2----2----2----|-2----2---2-------|

1. 2.
[Bb5/F]Gtrs I, II
PM----| PM| PM|
|-3--|
Q Q S S S S Q Q S S E +Q Q Q S S E +Q Q Q
 
 |------------------|-------------------||------------------||
 |------------------|------------------o||------------------||
 |------------------|-------------------||------------------||
 |-3--3----------3--|-3------3-(3)--3---||-3------3-(3)-3-3-||
 |-1--1----------1--|-1------1-(1)--1--o||-1------1-(1)-1-1-||
 |-1--1--1-1-1-1-1--|-1--1-1-1-(1)--1---||-1--1-1-1-(1)-1-1-||

Chorus
$$
Gtrs I, II
PM| PM|
S S E E E E E E E S S E E E E E E E
|--------------------------|---------------------------|
|--------------------------|---------------------------|
|--------------------------|---------------------------|
|--------------------------|---------------------------|
|-------------4--5p=4------|-------------4--5p=4-------|
|--2h5p=2--1-----------2p1-|--2h5p=2--1-----------2p=1-|
|
| Gtr III
| E E E E E E E E E E E E E E E E
|-------------9----------0h|==7p===5h=7p=0--9p=7h=9p=0-|
|-10p===9h10----10p=9h10---|---------------------------|
|--------------------------|---------------------------|
|--------------------------|---------------------------|
|--------------------------|---------------------------|
|--------------------------|---------------------------|
|
| Gtr IV
| E E E E E E E E E E E E E E E E
|--------------------------|---------------------------|
|------------10------------|---------------------------|
|-11p==10h11----11p10h11-9s|=13p==11h13----14p13h14----|
|--------------------------|------------11----------11-|
|--------------------------|---------------------------|
|--------------------------|---------------------------|
PM| PM|
S S E E E E E E E S S E E E E E E E
|---------------------------|--------------------------|
|---------------------------|--------------------------|
|---------------------------|--------------------------|
|---------------------------|--------------------------|
|-------------5--4p=1-------|------------5--4p=1-------|
|--1h4p=1--2-----------1h=4-|--1h4p=1--2----------1h=4-|
|
| PM
| E E E E E E E E E E E E E E E E
|-------------9-------------|--9p===7h=9p0-10p=9h10----|
|-12p==10h12----12p10h12----|------------------------9-|
|------------------------10-|--------------------------|
|---------------------------|--------------------------|
|---------------------------|--------------------------|
|---------------------------|--------------------------|
|
| PM PM
| E E E E E E E E E E E E E E E E
|---------------------------|--------------------------|
|------------10-------------|--------------------------|
|-13p==11h13----13p11h13----|-14p==13h14p9s16p14h16----|
|------------------------12-|-----------------------15-|
|---------------------------|--------------------------|
|---------------------------|--------------------------|
PM| PM|
S S E E E E E E E S S E E E E E E E
|--------------------------|---------------------------|
|--------------------------|---------------------------|
|--------------------------|---------------------------|
|--------------------------|---------------------------|
|-------------4--5p=4------|-------------4--5p=4-------|
|--2h5p=2--1-----------2p1-|--2h5p=2--1-----------2p=1-|
|
| E E E E E E E E E E E E E E E E
|-------------9----------0h|==7p===5h=7p=0--9p=7h=9p=0-|
|-10p===9h10----10p=9h10---|---------------------------|
|--------------------------|---------------------------|
|--------------------------|---------------------------|
|--------------------------|---------------------------|
|--------------------------|---------------------------|
|
| E E E E E E E E E E E E E E E E
|--------------------------|---------------------------|
|------------10------------|---------------------------|
|-11p==10h11----11p10h11-9s|=13p==11h13----14p13h14----|
|--------------------------|------------11----------11-|
|--------------------------|---------------------------|
|--------------------------|---------------------------|
|--------------------------------------------------------------------|
|--------------------------------------------------------------------|
|--------------------------------------------------------------------|
|--------------------------------------------------------------------|
|--------------------------------------------------------------------|
|---1h==4p==1-1--1-1--1---1----------4h==7p=4-4--4-4--4---4----------|
||
|------------------------------------|
|------------------------------------|
|------------------------------------|
|------------------------------------|
|-2h5p2-2--2-2-2-2-5h8p5-5-----------|
|--------------------------7-7-4-4---|
|-/13-(13)p10---------------------9h10-(10)p7---------------------10p|
|---------------12------------12-----------------9-------------9-----|
|--------------------13-(13)-(13)--------------------10-(10)-(10)----|
|--------------------------------------------------------------------|
|--------------------------------------------------------------------|
|--------------------------------------------------------------------|
|=7----------------------------------|
|-----9------------9p==6-------------|
|---------10p==7-----------7---------|
|------------------------------9-----|
|------------------------------------|
|------------------------------------|
|--------------------------------------------------------------------|
|-/15p=====12-----------------------12p=====9------------------------|
|---------------13p==10-------------------------10p===7--------------|
|--------------------------------------------------------------------|
|--------------------------------------------------------------------|
|--------------------------------------------------------------------|
||
|------------------------------------|
|-9p==6------------6p==3-------------|
|----------7p==4-----------4p==1-----|
|------------------------------------|
|------------------------------------|
|------------------------------------|
PM| PM|
S S E E E E E E E S S E E E E E E E
|--------------------------|---------------------------|
|--------------------------|---------------------------|
|--------------------------|---------------------------|
|--------------------------|---------------------------|
|-------------4--5p=4------|-------------4--5p=4-------|
|--2h5p=2--1-----------2p1-|--2h5p=2--1-----------2p=1-|
|
| E E E E E E E E E E E E E E E E
|-------------9----------0h|==7p===5h=7p=0--9p=7h=9p=0-|
|-10p===9h10----10p=9h10---|---------------------------|
|--------------------------|---------------------------|
|--------------------------|---------------------------|
|--------------------------|---------------------------|
|--------------------------|---------------------------|
|
| E E E E E E E E E E E E E E E E
|--------------------------|---------------------------|
|------------10------------|---------------------------|
|-11p==10h11----11p10h11-9s|=13p==11h13----14p13h14----|
|--------------------------|------------11----------11-|
|--------------------------|---------------------------|
|--------------------------|---------------------------|
PM| PM|
S S E E E E E E E S S E E E E E E E
|---------------------------|--------------------------|
|---------------------------|--------------------------|
|---------------------------|--------------------------|
|---------------------------|--------------------------|
|-------------5--4p=1-------|------------5--4p=1-------|
|--1h4p=1--2-----------1h=4-|--1h4p=1--2----------1h=4-|
|
| PM
| E E E E E E E E E E E E E E E E
|-------------9-------------|--9p===7h=9p0-10p=9h10----|
|-12p==10h12----12p10h12----|------------------------9-|
|------------------------10-|--------------------------|
|---------------------------|--------------------------|
|---------------------------|--------------------------|
|---------------------------|--------------------------|
|
| PM PM
| E E E E E E E E E E E E E E E E
|---------------------------|--------------------------|
|------------10-------------|--------------------------|
|-13p==11h13----13p11h13----|-14p==13h14p9s16p14h16----|
|------------------------12-|-----------------------15-|
|---------------------------|--------------------------|
|---------------------------|--------------------------|
PM|
S S E E E E E E E S S E E E E E E E
|--------------------------|---------------------------|
|--------------------------|---------------------------|
|--------------------------|---------------------------|
|--------------------------|---------------------------|
|-------------4--5p=4------|-------------4--5p=4-------|
|--2h5p=2--1-----------2p1-|--2h5p=2--1-----------2p=1-|
||
S S S S S S S S SS S S S S S S
|-------------------------------------------------------------|
|-------------------------------------------------------------|
|-------------------------------------------------------------|
|-------------------------------------------------------------|
|-------------------------------------------------------------|
|--1h4p===1----1--1-1----1----1--4h7p===4----4--4-4----4----4-|
|-------------9----------0h|==7p===5h=7p=0--9p=7h=9p=0-|
|-10p===9h10----10p=9h10---|---------------------------|
|--------------------------|---------------------------|
|--------------------------|---------------------------|
|--------------------------|---------------------------|
|--------------------------|---------------------------|
|-------------------------------------------------------------|
|----------------------------------------------18p==12h==15---|
|-------------------------------19p==13h==16------------------|
|----------------18p==12h==15---------------------------------|
|-20p==14h==17------------------------------------------------|
|-------------------------------------------------------------|
|--------------------------|---------------------------|
|------------10------------|---------------------------|
|-11p==10h11----11p10h11-9s|=13p==11h13----14p13h14----|
|--------------------------|------------11----------11-|
|--------------------------|---------------------------|
|--------------------------|---------------------------|
|-------------------------------------------------------------|
|----------------------------------------------15p===9h==12---|
|-------------------------------16p==10h==13------------------|
|----------------15p===9h==12---------------------------------|
|-17p==11h==14------------------------------------------------|
|-------------------------------------------------------------|
To Coda
To Coda
S S S S S S S S S S S S S S S S
|------------------------------------------------------------------||
|------------------------------------------------------------------||
|------------------------------------------------------------------||
|------------------------------------------------------------------||
|--2h5p===2----2--2-2----2----2--5h8p===5----5---------------------||
|-------------------------------------------------7----7----4----4-||
|
| T T
| |-----------6------------| |--------------7--------------|
| E E E E E E E E E E E E E
|----------------19p==13h==16s==22s==16p==13-----------------------||
|-21p==14h==18-----------------------------------------------------||
|----------------------------------------------13h==19p==16p==13---||
|------------------------------------------------------------------||
|------------------------------------------------------------------||
|------------------------------------------------------------------||
|
| T T
| |-----------6------------| |--------------7--------------|
| E E E E E E E E E E E E E
|----------------16p===9h==13s==17s==13p===9-----------------------||
|-18p==10h==15-----------------------------------------------------||
|----------------------------------------------10h==16p==13p==10---||
|------------------------------------------------------------------||
|------------------------------------------------------------------||
|------------------------------------------------------------------||
Verse II
D.S. al Coda
Gtr I
PM PM PM PM PM
|------------------|-----------------:
|------------------|-----------------:
|------------------|-----------------:
|------------------|---7-------------:
|-5p4----4---5---4p|=0---4-0-5p4---4-:
|-----2----2---2---|-------------7---:
|
| Gtr II
| q H. W
|------------------|-----------------:
|------------------|-----------------:
|------------------|-----------------:
|------------------|-----------------:
|-4----------------|-----------------:
|-2----------------|-----------------:
Bridge
&
Gtrs I, II
PM-----------------------
S S S S S S S S S S S S S S S S S S S S
|-----------------------------------------|
|-----------------------------------------|
|-----------------------------------------|
|-4-4-4-4-4-4-4-4-------------------------|
|-----------------------------------------|
|-----------------2-2-2-2-2-2-2-2-2-2-2-2-|
-------| PM--------| PM--|
Q Q Q Q +Q H S S E S S E S S E S S E
|----------|--------------|--------------------------|
|----------|--------------|--------------------------|
|----------|--------------|--------------------------|
|----------|-7--(7)S=3----|--------------------------|
|-3--4--3--|-x-------x----|-------------4-4-4--------|
|-1--2--1--|-5--(5)S=1----|-1-1-1-2-2-2-------2-2-2--|
PM------------------------------| PM
S S S S S S S S S S S S S S S S S S S S Q Q Q H. Q W
|-----------------------------------------|----------|------------|------|
|-----------------------------------------|----------|------------|------|
|-----------------------------------------|----------|------------|------|
|-4-4-4-4-4-4-4-4-------------------------|----------|-7----------|-6----|
|-----------------------------------------|-3--4--3--|-5-------5--|-4----|
|-----------------2-2-2-2-2-2-2-2-2-2-2-2-|-1--2--1--|-5-------5--|-4----|
Gtr I
PM-----------------------
S S S S S S S S S S S S S S S S S S S S
|-----------------------------------------|
|-----------------------------------------|
|-----------------------------------------|
|-4-4-4-4-4-4-4-4-------------------------|
|-----------------------------------------|
|-----------------2-2-2-2-2-2-2-2-2-2-2-2-|
|
| Gtr II
| PM-----------------------
| S S S S S S S S S S S S S S S S S S S S
|-----------------------------------------|
|-----------------------------------------|
|-----------------------------------------|
|-7-7-7-7-7-7-7-7-------------------------|
|-----------------------------------------|
|-----------------5-5-5-5-5-5-5-5-5-5-5-5-|
-------| PM--------| PM--|
Q Q Q Q +Q H S S E S S E S S E S S E
|----------|--------------|--------------------------|
|----------|--------------|--------------------------|
|----------|--------------|--------------------------|
|----------|-7--(7)S=3----|--------------------------|
|-3--4--3--|-x-------x----|-------------4-4-4--------|
|-1--2--1--|-5--(5)S=1----|-1-1-1-2-2-2-------2-2-2--|
|
|-------| PM--------| PM--|
| Q Q Q Q +Q H S S E S S E S S E S S E
|----------|--------------|--------------------------|
|----------|--------------|--------------------------|
|----------|--------------|--------------------------|
|----------|-7--(7)S=3----|--------------------------|
|-3--4--3--|-x-------x----|-------------8-8-8--------|
|-1--2--1--|-5--(5)S=1----|-4-4-4-5-5-5-------5-5-5--|
PM-----------------------
S S S S S S S S S S S S S S S S S S S S
|-----------------------------------------|
|-----------------------------------------|
|-----------------------------------------|
|-4-4-4-4-4-4-4-4-------------------------|
|-----------------------------------------|
|-----------------2-2-2-2-2-2-2-2-2-2-2-2-|
|
| PM-----------------------
| S S S S S S S S S S S S S S S S S S S S
|-----------------------------------------|
|-----------------------------------------|
|-----------------------------------------|
|-7-7-7-7-7-7-7-7-------------------------|
|-----------------------------------------|
|-----------------5-5-5-5-5-5-5-5-5-5-5-5-|
-------| PM
Q Q Q Q Q Q Q Q Q Q Q
|----------|-------------|------------------||
|----------|-------------|------------------||
|----------|-------------|----11--10--/13---||
|----------|-7--6-----7--|-6---x---x----x---||
|-3--4--3--|-5--4--3--5--|-4---9---8--/11---||
|-1--2--1--|-5--4--3--5--|-4----------------||
|
|-------| PM
| Q Q Q Q Q Q Q Q Q Q Q
|----------|-------------|------------------||
|----------|-------------|------------------||
|----------|-------------|-----7---6s==10---||
|----------|-7--6-----7--|-6---x---x--------||
|-3--4--3--|-5--4--3--5--|-4---5---4s===8---||
|-1--2--1--|-5--4--3--5--|-4----------------||
Guitar Solo
Gtrs I, II
W +H H
| | |
/ / /
Gtr III
\3 \2.5____________/2.5_______/ \3.5
~ ~~~ ~~~~ ~~~ ~
a Q +Q E +E +Q +E +E a +Q +Q Q
|-----------------------------|-------------------------------|
|-----------------------------|-------------------------------|
|-7s9--(9)--/11-(11)----(11)--|-(11)----(11)---------------6--|
|-----------------------------|--------------9-(9)--(9)-------|
|-----------------------------|-------------------------------|
|-----------------------------|-------------------------------|
W +W
| |
/ /
\1.5/ \0.5/
~~~~
+E S S Q Q Q +Q +H.
|--------------------------------|---------------|
|-----------^x-------------------|---------------|
|-(6)s9-----^x-------------------|---------------|
|-----------^x-------------------|---------------|
|--------------9------11--11b12--|-(11)--(11)----|
|--------------------------------|---------------|
W +W
| |
/ /
PM PM ~~
E E E E E E E E E E H +Q
|---------------------|-------------------|
|---------------------|--9p7s10----(10)\--|
|---------------11----|-------------------|
|---7h11p7-9s11----11-|-------------------|
|-9-------------------|-------------------|
|---------------------|-------------------|
W W
| |
/ /
~~~~~ ~~~~
|-3--|
Q +E +Q S S S Q +Q +H.
|-------------------------------|------------------|
|-12b14===(12)r(12)p=9h10p9-----|------------------|
|---------------------------10--|-(10)b11--(10)----|
|-------------------------------|------------------|
|-------------------------------|------------------|
|-------------------------------|------------------|
W +H H
| | |
/ / /
T T T T
|-3--| |----5-----| |------6-------| |------6-------| |------6-------|
E E E S S S S S E E E E E E E E E E E E E E E E E E
|--------------9-------------------------|----------------------------------17s|
|-----------10---10----19p17p12h17p14h17-|-19p17p14----------14h17h19p17p14----|
|--------11---------11-------------------|----------14p13h14-------------------|
|---7h11---------------------------------|-------------------------------------|
|-9--------------------------------------|-------------------------------------|
|----------------------------------------|-------------------------------------|
W +W
| |
/ /
T T T T T T T
|--------7--------| |-------7-------| |------6-------| |-----5-----|
|-24s21p17p14p12----------16p9------------|----------------------------------|
|----------------17p14p12------17p12p9h10-|----------------------------------|
|-----------------------------------------|-16p13p10h13-16p11----13-16p13p11-|
|-----------------------------------------|-------------------12-------------|
|-----------------------------------------|----------------------------------|
|-----------------------------------------|----------------------------------|
W +W W +W
| | | |
/ / / /
\4
~~~ ~~
|-----6------|
Q +Q +Q Q +Q +H. Q Q Q Q Q Q W
|------------------------|---------------|-----------9----9s==|=13----||
|----------------[7]b10--|-(7)--(7)------|--------10---10-----|-------||
|-<7>--(7)--(7)----------|---------------|-----10-------------|-------||
|-<7>--(7)--(7)----------|---------------|-/11----------------|-------||
|------------------------|---------------|--------------------|-------||
|------------------------|---------------|--------------------|-------||
Re-Intro
F#5
Gtrs I, II
PM----------------------------------------------------------
S S E Q Q S S E Q S S e S S e S S e
||------------------------------|-------------------------------|
||o-----------------------------|-------------------------------|
||------------------------------|-------------------------------|
||------------------------------|-------------------------------|
||o--4-4--4--4-----------4-4--4-|--4-----4-4--4--4-4--4--4-4--4-|
||---2-2--2--2-----------2-2--2-|--2-----2-2--2--2-2--2--2-2--2-|
|
| Gtr III
| PM----------------------------------------------------------
| E E E E E E E E E E E E E E E E
||------------------------------|-------------------------------|
||o-----------------------------|-------------------------------|
||------------------------------|-------------------------------|
||--16---16-------14-14---------|-12-12---------11---11---------|
||o---------16-16-------14---14-|-------12---12---------11---11-|
||------------------------------|-------------------------------|
|
| Gtr IV
| PM----------------------------------------------------------
| E E E E E E E E E E E E E E E E
||------------------------------|-------------------------------|
||o-----------------------------|-------------------------------|
||---7----7--------6--6---------|--4--4----------2----2---------|
||-----------4--4--------4----4-|--------4----4----------2----2-|
||o-----------------------------|-------------------------------|
||------------------------------|-------------------------------|
----------------------------------------------------------|
S S E Q Q S S E Q S S e S S e S S e
|-----------------------------|-------------------------------|
|-----------------------------|-------------------------------|
|-----------------------------|-------------------------------|
|-----------------------------|-------------------------------|
|--4-4--4--4-----------4-4--4-|--4-----4-4--4--4-4--4--4-4--4-|
|--2-2--2--2-----------2-2--2-|--2-----2-2--2--2-2--2--2-2--2-|
|
|----------------------------------------------------------|
| E E E E E E E E E E E E E E E E
|-----------------------------|-------------------------------|
|-----------------------------|-------------------------------|
|-----------------------------|-------------------------------|
|-16---16-------14-14---------|-12-12---------11---11---------|
|---------16-16-------14---14-|-------12---12---------11---11-|
|-----------------------------|-------------------------------|
|
|----------------------------------------------------------|
| E E E E E E E E E E E E E E E E
|-----------------------------|-------------------------------|
|-----------------------------|-------------------------------|
|--7----7--------6--6---------|--4--4----------2----2---------|
|----------4--4--------4----4-|--------4----4----------2----2-|
|-----------------------------|-------------------------------|
|-----------------------------|-------------------------------|
PM----------------------------------------------------------
S S E Q Q S S E Q S S e S S e S S e
|-----------------------------|-------------------------------|
|-----------------------------|-------------------------------|
|-----------------------------|-------------------------------|
|-----------------------------|-------------------------------|
|--7-7--7--7-----------7-7--7-|--7-----7-7--7--7-7--7--7-7--7-|
|--5-5--5--5-----------5-5--5-|--5-----5-5--5--5-5--5--5-5--5-|
|
| PM------------------------------------------------------|
| E E E E E E E E E E E E E E E E
|-----------------------------|-------------------------------|
|-----------------------------|-------------------------------|
|-----------------------------|-------------------------------|
|-18---18-------16-16---------|-14-14---------12---12---------|
|---------16-16-------14---14-|-------12---12---------11---11-|
|-----------------------------|-------------------------------|
|
| PM------------------------------------------------------|
| E E E E E E E E E E E E E E E E
|-----------------------------|-------------------------------|
|-----------------------------|-------------------------------|
|--9----9--------7--7---------|--6--6----------4----4---------|
|----------4--4--------4----4-|--------4----4----------2----2-|
|-----------------------------|-------------------------------|
|-----------------------------|-------------------------------|
1.
------| PM------------| PM--|
S S E H S S E S S E Q S S E Q
|-----------------------------|-----------------------------||
|-----------------------------|----------------------------o||
|-----------------------------|-----------------------4-----||
|----------4------------------|----------4------------6-----||
|--2-2--2--2-----------2-2--2-|--2-2--2--2----2-2--2--2----o||
|----------2------------------|----------2------------------||
|
| PM PM PM PM PM PM PM
| E E E E E E E E E E E E E E E E
|-----------------------------|-----------------------------||
|-----------------------------|----------------------------o||
|-11--------------------------|-\9--------------------------||
|------12-14-11-12----11------|------11-12-9-11-------------||
|------------------14------12-|-------------------12s14----o||
|-----------------------------|-------------------------16--||
|
| PM PM PM PM PM PM PM
| E E E E E E E E E E E E E E E E
|-----------------------------|-----------------------------||
|-----------------------------|----------------------------o||
|--7----4--6-----4------------|--6-------4------------------||
|-------------7-----6--7----4-|-------7----6--7----4S=6-----||
|-----------------------------|--------------------------8-o||
|-----------------------------|-----------------------------||
2.
PM--| PM-----------| PM--|
S S E H S S E S S E Q S S E Q
|-------------------------|----------------------||
|-------------------------|----------------------||
|-------------------------|-------------------4--||
|---------4---------------|---------3---------6--||
|--2-2-2--2---------------|---------1---2-2-2-2--||
|---------2---------2-2-2-|--1-1-1--1------------||
|
| Q Q +Q Q W
|-------------------------|----------------------||
|-------------------------|----------------------||
|-13-----14--(14)S=11-----|-10-------------------||
|--x------x---------x-----|--x-------------------||
|-11-----12--(12)S==9-----|--8-------------------||
|-------------------------|----------------------||
|
| Q Q +Q Q Q +Q H
|-------------------------|----------------------||
|-------------------------|----------------------||
|-10-----11--(11)---------|----------------------||
|--x------x---------4-----|--3-----(3)s=6--------||
|--8------9---(9)---x-----|--x-------------------||
|-------------------2-----|--1-----(1)s=4--------||
Interlude
Gtr I
TP TP TP TP TP TP TP TP TP TP TP TP TP TP TP
Q Q Q Q Q Q Q Q Q Q Q Q Q Q H
||-----------------|----------------|----------------|-----------------|
||o-10--9----------|----------------|----------------|-----------------|
||---------11------|------------11--|------------11--|-13--14--11------|
||-------------11--|--------11------|--------11------|-----------------|
||o----------------|-9--12----------|-9--12----------|-----------------|
||-----------------|----------------|----------------|-----------------|
|
| Gtr II
| TP TP TP TP TP TP
| Q H Q H Q Q Q H Q H Q Q
||-----------------|----------------|----------------|-----------------|
||o----------------|----------------|----------------|-----------------|
||-----------------|----------------|----------------|-----------------|
||---7----------6--|---------4------|-7-----------6--|----------4------|
||o-----0----------|-0--------------|-----0----------|--0--------------|
||-----------------|-------------2--|----------------|-------------2---|
1.
TP TP TP TP TP TP TP TP TP TP TP TP TP
Q Q Q Q Q Q Q Q Q Q Q Q W
|----------------|----------------|----------------|--------------||
|-10--9----------|----------------|----------------|-9-----------o||
|--------11------|------------11--|------------11--|--------------||
|------------11--|--------11------|--------11------|--------------||
|----------------|-9--12----------|-9--12----------|-------------o||
|----------------|----------------|----------------|--------------||
|
| TP TP TP TP TP TP TP
| Q H Q H Q Q Q Q Q Q Q Q Q Q
|----------------|----------------|----------------|--------------||
|----------------|----------------|----------------|-------------o||
|--9----------7--|---------6------|-6--------------|--------------||
|----------------|----------------|---------9------|-7-----6------||
|-----5----------|-5-----------5--|-----5-------5--|----5-----4--o||
|----------------|----------------|----------------|--------------||
2.
D.S.S. al Dbl. Coda
|-------------------|-----------------||
|--9p6h=9p6---------|-----------------||
|-----------7p6h7p6-|-----------------||
|-------------------|-6p3h6p3-6p3-----||
|-------------------|-------------4---||
|-------------------|---------------5-||
|
| E E E E E E E E E E E E E E E E
|-------------------|-----------------||
|-------------------|-----------------||
|-10p7h10p7---------|-----------------||
|-----------9p7h9p7-|-----------------||
|-------------------|-8p4h8p4h8p4p0---||
|-------------------|---------------2-||
Outro
&&
Gtrs I, II
PM
Q Q H Q Q Q Q w
|------------|-------------|------*|
|------------|-------------|------*|
|------------|-------------|------*|
|-7--6-------|----7--6-----|-4----*|
|-5--4-------|----x--x--3--|-4----*|
|-5--4-------|----5--4--3--|-2----*|
Duration Legend
---------------
W - whole; H - half; Q - quarter; E - 8th; S - 16th; T - 32nd; X - 64th; a - acciaccatura
+ - note tied to previous; . - note dotted; .. - note double dotted
Uncapitalized letters represent notes that are staccato (1/2 duration)
Irregular groupings are notated above the duration line
Duration letters will always appear directly above the note/fret number it represents the
duration for. Duration letters with no fret number below them represent rests. Multi-
bar rests are notated in the form Wxn, where n is the number of bars to rest for. Low
melody durations appear below the staff
Tablature Legend
----------------
h - hammer-on
p - pull-off
b - bend
pb - pre-bend
r - bend release (if no number after the r, then release immediately)
/\ - slide into or out of (from/to "nowhere")
s - legato slide
S - shift slide
<n> - natural harmonic
[n] - artificial harmonic
n(n) - tapped harmonic
~ - vibrato
tr - trill
T - tap
TP - trem. picking
PM - palm muting
\n/ - tremolo bar dip; n = amount to dip
\n - tremolo bar down
n/ - tremolo bar up
/n\ - tremolo bar inverted dip
= - hold bend; also acts as connecting device for hammers/pulls
<> - volume swell (louder/softer)
x - on rhythm slash represents muted slash
o - on rhythm slash represents single note slash
Misc Legend
-----------
| - bar
|| - double bar
||o - repeat start
o|| - repeat end
*| - double bar (ending)
: - bar (freetime)
$ - Segno
& - Coda
Tempo markers - <E/E./Q/Q./H/H.> = BPM(8/16=s8/s16), where s8 = swing 8ths, s16 = swing 16ths

Important: The song above is NOT stored on the Chordie server. The original song is hosted at www.azchords.com. Chordie works as a search engine and provides on-the-fly formatting. Chordie does not index songs against artists'/composers' will. To remove this song please click here.

Text color:
Chord color:
Chord grids: 
Font size:    
Page size: 

A5 B5/F# Bb5/F D5/A E E5/B F#5 Fm/Ab G#m/B
Rate #2 of 2 versions

Jango Player

Login - add to songbook

SHARE PAGE  




You need to log in to post comments