Guitar Tabs, Chords and Lyrics
Major upgrade!! After one year development the new version of Chordie is now online! Please give feedback.


When the Last Grave Has Emptied   The Black Dahlia Murder

 
 |-----------------|-----------------|
 |-----------------|-----------------|
 |-----------------|-----------------|
 |-----------------|-----------------|
 |-----6---7-------|-9---10---7---9--|
 |-0-0---0---0-0-0-|---0----0---0----|

 


 |


 | Gtr II


 | PM| PM PM--| PM PM PM~


 

 
 |-----------------|-----------------|
 |-----------------|-----------------|
 |-----------------|-----------------|
 |-----------------|-----------------|
 |-----6---7-------|-9---10---7---9--|
 |-0-0---0---0-0-0-|---0----0---0----|

 


 


 PM| PM PM--|


 

 
 |-----------------|----------------------------------|
 |-----------------|----------------------------------|
 |-----------------|----------------------------------|
 |-----------------|----------------------------------|
 |-----6---7-------|--7--7--7--7---------6-6-6-6------|
 |-0-0---0---0-0-0-|-------------8-8-8-8---------7----|

 


 |


 | PM| PM PM--|


 

 
 |-----------------|----------------------------------|
 |-----------------|----------------------------------|
 |-----------------|----------------------------------|
 |-----------------|----------------------------------|
 |-----6---7-------|-10-10-10-10-7-7-7-7-9-9-9-9-6----|
 |-0-0---0---0-0-0-|----------------------------------|

 


 


 [4/4] Gtr I


 PM| PM PM--| PM PM PM~


 

 
 |-----------------|-----------------|
 |-----------------|-----------------|
 |-----------------|-----------------|
 |-----------------|-----------------|
 |-----6---7-------|-9---10---7---9--|
 |-0-0---0---0-0-0-|---0----0---0----|

 


 |


 | Gtr II


 | PM| PM PM--| PM PM PM~


 

 
 |-----------------|-----------------|
 |-----------------|-----------------|
 |-----------------|-----------------|
 |-----------------|-----------------|
 |-----6---7-------|-9---10---7---9--|
 |-0-0---0---0-0-0-|---0----0---0----|

 


 


 PM| PM PM--|


 

 
 |-----------------|----------------------------------|
 |-----------------|----------------------------------|
 |-----------------|----------------------------------|
 |-----------------|----------------------------------|
 |-----6---7-------|--7--7--7--7---------6-6-6-6------|
 |-0-0---0---0-0-0-|-------------8-8-8-8---------7----|

 


 |


 | PM| PM PM--|


 

 
 |-----------------|----------------------------------|
 |-----------------|----------------------------------|
 |-----------------|----------------------------------|
 |-----------------|----------------------------------|
 |-----6---7-------|-10-10-10-10-7-7-7-7-9-9-9-9------|
 |-0-0---0---0-0-0-|-----------------------------4----|

 


 


 Verse A


 [4/4] Gtr I


 PM| PM PM--| PM PM PM~


 

 
 |-----------------|-----------------|
 |-----------------|-----------------|
 |-----------------|-----------------|
 |-----------------|-----------------|
 |-----6---7-------|-9---10---7---9--|
 |-0-0---0---0-0-0-|---0----0---0----|

 


 |


 | Gtr II


 | PM| PM PM--| PM PM PM~


 

 
 |-----------------|-----------------|
 |-----------------|-----------------|
 |-----------------|-----------------|
 |-----------------|-----------------|
 |-----6---7-------|-9---10---7---9--|
 |-0-0---0---0-0-0-|---0----0---0----|

 


 


 PM| PM PM--|


 

 
 |-----------------|----------------------------------|
 |-----------------|----------------------------------|
 |-----------------|----------------------------------|
 |-----------------|----------------------------------|
 |-----6---7-------|--7--7--7--7---------6-6-6-6------|
 |-0-0---0---0-0-0-|-------------8-8-8-8---------7----|

 


 |


 | PM| PM PM--|


 

 
 |-----------------|----------------------------------|
 |-----------------|----------------------------------|
 |-----------------|----------------------------------|
 |-----------------|----------------------------------|
 |-----6---7-------|-10-10-10-10-7-7-7-7-9-9-9-9-6----|
 |-0-0---0---0-0-0-|----------------------------------|

 


 


 [4/4] Gtr I


 PM| PM PM--| PM PM PM~


 

 
 |-----------------|-----------------|
 |-----------------|-----------------|
 |-----------------|-----------------|
 |-----------------|-----------------|
 |-----6---7-------|-9---10---7---9--|
 |-0-0---0---0-0-0-|---0----0---0----|

 


 |


 | Gtr II


 | PM| PM PM--| PM PM PM~


 

 
 |-----------------|-----------------|
 |-----------------|-----------------|
 |-----------------|-----------------|
 |-----------------|-----------------|
 |-----6---7-------|-9---10---7---9--|
 |-0-0---0---0-0-0-|---0----0---0----|

 


 


 PM| PM PM--|


 

 
 |-----------------|----------------------------------|
 |-----------------|----------------------------------|
 |-----------------|----------------------------------|
 |-----------------|----------------------------------|
 |-----6---7-------|--7--7--7--7---------6-6-6-6------|
 |-0-0---0---0-0-0-|-------------8-8-8-8---------7----|

 


 |


 | PM| PM PM--|


 

 
 |-----------------|----------------------------------|
 |-----------------|----------------------------------|
 |-----------------|----------------------------------|
 |-----------------|----------------------------------|
 |-----6---7-------|-10-10-10-10-7-7-7-7-9-9-9-9------|
 |-0-0---0---0-0-0-|-----------------------------4----|

 


 


 Verse B


 Gtr I


 

 
 PM--------------------------|
 ||-----------------|-----------------|
 ||o----------------|-----------------|
 ||-----------------|-----------------|
 ||-----------------|-----------------|
 ||o----------------|-----------------|
 ||--0-0--0-9-0-8-0-|-0-0--0-9-0-7-11-|

 


 |


 | Gtr II


 

 
 | PM--------------------------|
 ||-----------------|-----------------|
 ||o----------------|-----------------|
 ||-----------------|-----------------|
 ||-----------------|-----------------|
 ||o----------------|-----------------|
 ||--0-0--0-9-0-8-0-|-0-0--0-9-0-7-11-|
 PM-----------|
 |----------------|-----------------------------------||
 |----------------|----------------------------------o||
 |----------------|-----------------------------------||
 |----------------|-----------------------------------||
 |----------------|-10h13p10-9h12p9-10h13p10-9h12p9--o||
 |-0-0--0-9-0-8-0-|-----------------------------------||

 


 |


 

 
 | PM-----------|
 |----------------|-----------------------------------||
 |----------------|----------------------------------o||
 |----------------|-----------------------------------||
 |----------------|-----------------------------------||
 |----------------|--7h10p=7-6h=9p6--7h10p=7-6h=9p6--o||
 |-0-0--0-9-0-8-0-|-----------------------------------||

 


 


 Pre-Chorus


 Gtr I


 

 
 PM---| PM---|

 


 3x


 

 
 ||-----------------------||----------------------|
 ||o---------------------o||----------------------|
 ||-----------------------||----------------------|
 ||---------7h10p7-6h9p6--||--------7h10p7-9h12p9-|
 ||o---------------------o||----------------------|
 ||--5-5--5---------------||-5-5--5---------------|

 


 |


 | Gtr II


 

 
 | PM---| PM---|

 


 | 3x


 

 
 ||-----------------------||----------------------|
 ||o---------------------o||----------------------|
 ||-----------------------||----------------------|
 ||---------7h10p7-6h9p6--||--------7h10p7-6h=9p6-|
 ||o---------------------o||----------------------|
 ||--5-5--5---------------||-5-5--5---------------|

 


 


 Gtrs I, II


 

 
 PM---| PM---|

 


 3x


 

 
 ||-----------------------||----------------------|
 ||o---------------------o||----------------------|
 ||-----------------------||----------------------|
 ||-----------------------||----------------------|
 ||o--------7h10p7-6h9p6-o||--------7h10p7-9h12p9-|
 ||--0-0--0---------------||-0-0--0---------------|

 


 


 Gtrs I, II


 PM---|


 3x


 

 
 ||-----------------------||---------------------------|
 ||o---------------------o||---------------------------|
 ||-----------------------||---------------------------|
 ||---------7h10p7-6h9p6--||-7h10p7-6h9p6-7h10p7-6h9p6-|
 ||o---------------------o||---------------------------|
 ||--5-5--5---------------||---------------------------|

 


 


 Chorus


 Gtr I


 

 
 ||----------------------------------|-------------------------------------|
 ||o---------------------------------|-------------------------------------|
 ||----------------------------------|-------------------------------------|
 ||----------------------------------|-------------------------------------|
 ||o---------6-6-6-6-7-7-7-7---------|-9-9-9-9-10-10-10-10---------9-9-9-9-|
 ||--0-0-0-0-----------------7-7-7-7-|---------------------6-6-6-6---------|

 


 |


 | Gtr II


 

 
 ||----------------------------------|-------------------------------------|
 ||o---------------------------------|-------------------------------------|
 ||----------------------------------|-------------------------------------|
 ||----------------------------------|-------------------------------------|
 ||o---------6-6-6-6-7-7-7-7---------|-9-9-9-9-10-10-10-10---------9-9-9-9-|
 ||--0-0-0-0-----------------7-7-7-7-|---------------------6-6-6-6---------|
 |-----------------------------------------|
 |-----------------------------------------|
 |-----------------------------------------|
 |-----------------------------------------|
 |-7-7-7-7-12-12-12-12-10-10-10-10-9-9-9-9-|
 |-----------------------------------------|

 


 |


 

 
 |-----------------------------------------|
 |-----------------------------------------|
 |-----------------------------------------|
 |-----------------------------------------|
 |-7-7-7-7--9--9--9--9--7--7--7--7-6-6-6-6-|
 |-----------------------------------------|

 


 


 Gtr I


 

 
 |---------------------------------|-------------------------------------|
 |---------------------------------|-------------------------------------|
 |---------------------------------|-------------------------------------|
 |---------------------------------|-------------------------------------|
 |---------6-6-6-6-7-7-7-7---------|-9-9-9-9-10-10-10-10---------9-9-9-9-|
 |-0-0-0-0-----------------7-7-7-7-|---------------------6-6-6-6---------|

 


 |


 | Gtr II


 

 
 |---------------------------------|-------------------------------------|
 |---------------------------------|-------------------------------------|
 |---------------------------------|-------------------------------------|
 |---------------------------------|-------------------------------------|
 |---------6-6-6-6-7-7-7-7---------|-9-9-9-9-10-10-10-10---------9-9-9-9-|
 |-0-0-0-0-----------------7-7-7-7-|---------------------6-6-6-6---------|
 |----------------------------------------||
 |---------------------------------------o||
 |----------------------------------------||
 |----------------------------------9-----||
 |-7-7-7-7-12-12-12-12-10-10-10-10-------o||
 |----------------------------------------||

 


 |


 

 
 |----------------------------------------||
 |---------------------------------------o||
 |----------------------------------------||
 |----------------------------------------||
 |-7-7-7-7--9--9--9--9--7--7--7--7-10----o||
 |----------------------------------------||

 


 


 Pre-Verse


 [4/4] Gtr I


 PM| PM PM--| PM PM PM~


 

 
 |-----------------|-----------------|
 |-----------------|-----------------|
 |-----------------|-----------------|
 |-----------------|-----------------|
 |-----6---7-------|-9---10---7---9--|
 |-0-0---0---0-0-0-|---0----0---0----|

 


 |


 | Gtr II


 | PM| PM PM--| PM PM PM~


 

 
 |-----------------|-----------------|
 |-----------------|-----------------|
 |-----------------|-----------------|
 |-----------------|-----------------|
 |-----6---7-------|-9---10---7---9--|
 |-0-0---0---0-0-0-|---0----0---0----|

 


 


 PM| PM PM--|


 

 
 |-----------------|----------------------------------|
 |-----------------|----------------------------------|
 |-----------------|----------------------------------|
 |-----------------|----------------------------------|
 |-----6---7-------|--7--7--7--7---------6-6-6-6------|
 |-0-0---0---0-0-0-|-------------8-8-8-8---------7----|

 


 |


 | PM| PM PM--|


 

 
 |-----------------|----------------------------------|
 |-----------------|----------------------------------|
 |-----------------|----------------------------------|
 |-----------------|----------------------------------|
 |-----6---7-------|-10-10-10-10-7-7-7-7-9-9-9-9-6----|
 |-0-0---0---0-0-0-|----------------------------------|

 


 


 [4/4] Gtr I


 PM| PM PM--| PM PM PM~


 

 
 |-----------------|-----------------|
 |-----------------|-----------------|
 |-----------------|-----------------|
 |-----------------|-----------------|
 |-----6---7-------|-9---10---7---9--|
 |-0-0---0---0-0-0-|---0----0---0----|

 


 |


 | Gtr II


 | PM| PM PM--| PM PM PM~


 

 
 |-----------------|-----------------|
 |-----------------|-----------------|
 |-----------------|-----------------|
 |-----------------|-----------------|
 |-----6---7-------|-9---10---7---9--|
 |-0-0---0---0-0-0-|---0----0---0----|

 


 


 PM| PM PM--|


 

 
 |-----------------|----------------------------------|
 |-----------------|----------------------------------|
 |-----------------|----------------------------------|
 |-----------------|----------------------------------|
 |-----6---7-------|--7--7--7--7---------6-6-6-6------|
 |-0-0---0---0-0-0-|-------------8-8-8-8---------7----|

 


 |


 | PM| PM PM--|


 

 
 |-----------------|----------------------------------|
 |-----------------|----------------------------------|
 |-----------------|----------------------------------|
 |-----------------|----------------------------------|
 |-----6---7-------|-10-10-10-10-7-7-7-7-9-9-9-9------|
 |-0-0---0---0-0-0-|-----------------------------4----|

 


 


 Verse A


 [4/4] Gtr I


 PM| PM PM--| PM PM PM~


 

 
 |-----------------|-----------------|
 |-----------------|-----------------|
 |-----------------|-----------------|
 |-----------------|-----------------|
 |-----6---7-------|-9---10---7---9--|
 |-0-0---0---0-0-0-|---0----0---0----|

 


 |


 | Gtr II


 | PM| PM PM--| PM PM PM~


 

 
 |-----------------|-----------------|
 |-----------------|-----------------|
 |-----------------|-----------------|
 |-----------------|-----------------|
 |-----6---7-------|-9---10---7---9--|
 |-0-0---0---0-0-0-|---0----0---0----|

 


 


 PM| PM PM--|


 

 
 |-----------------|----------------------------------|
 |-----------------|----------------------------------|
 |-----------------|----------------------------------|
 |-----------------|----------------------------------|
 |-----6---7-------|--7--7--7--7---------6-6-6-6------|
 |-0-0---0---0-0-0-|-------------8-8-8-8---------7----|

 


 |


 | PM| PM PM--|


 

 
 |-----------------|----------------------------------|
 |-----------------|----------------------------------|
 |-----------------|----------------------------------|
 |-----------------|----------------------------------|
 |-----6---7-------|-10-10-10-10-7-7-7-7-9-9-9-9-6----|
 |-0-0---0---0-0-0-|----------------------------------|

 


 


 [4/4] Gtr I


 PM| PM PM--| PM PM PM~


 

 
 |-----------------|-----------------|
 |-----------------|-----------------|
 |-----------------|-----------------|
 |-----------------|-----------------|
 |-----6---7-------|-9---10---7---9--|
 |-0-0---0---0-0-0-|---0----0---0----|

 


 |


 | Gtr II


 | PM| PM PM--| PM PM PM~


 

 
 |-----------------|-----------------|
 |-----------------|-----------------|
 |-----------------|-----------------|
 |-----------------|-----------------|
 |-----6---7-------|-9---10---7---9--|
 |-0-0---0---0-0-0-|---0----0---0----|

 


 


 PM| PM PM--|


 

 
 |-----------------|----------------------------------|
 |-----------------|----------------------------------|
 |-----------------|----------------------------------|
 |-----------------|----------------------------------|
 |-----6---7-------|--7--7--7--7---------6-6-6-6------|
 |-0-0---0---0-0-0-|-------------8-8-8-8---------7----|

 


 |


 | PM| PM PM--|


 

 
 |-----------------|----------------------------------|
 |-----------------|----------------------------------|
 |-----------------|----------------------------------|
 |-----------------|----------------------------------|
 |-----6---7-------|-10-10-10-10-7-7-7-7-9-9-9-9------|
 |-0-0---0---0-0-0-|-----------------------------4----|

 


 


 Bridge


 Gtr I


 PM| PM PM--| PM PM


 

 
 ||------------------|--------------------|
 ||o-----------------|--------------------|
 ||------------------|--------------------|
 ||------------------|-----------9-7-5----|
 ||o-----6---7-------|-9---10-----------9-|
 ||--0-0---0---0-0-0-|---0----0-----------|

 


 |


 | Gtr II


 | PM| PM PM--| PM PM


 

 
 ||------------------|--------------------|
 ||o-----------------|--------------------|
 ||------------------|--------------------|
 ||------------------|--------------------|
 ||o-----6---7-------|-9---10---10-9-7----|
 ||--0-0---0---0-0-0-|---0----0--------10-|

 


 


 PM| PM PM|


 4x


 

 
 |-------------------|------------------------||
 |-------------------|-----------------------o||
 |-------------------|------------------------||
 |-----7----9-----12-|-10-9---------------9---||
 |-------------------|------12-10-9-10-12----o||
 |-8-8---8----8-8----|------------------------||

 


 |


 | PM| PM PM|


 | 4x


 

 
 |-------------------|------------------------||
 |-------------------|-----------------------o||
 |-------------------|------------------------||
 |-----------------9-|--7-5---------------5---||
 |-----9---10--------|-------9--7-5--7--9----o||
 |-8-8---8----8-8----|------------------------||

 


 


 Verse B


 Gtr I


 

 
 PM---| PM PM-------------|
 ||-----------------|-----------------|
 ||o----------------|-----------------|
 ||-----------------|-----------------|
 ||-----------------|-----------------|
 ||o--------7---6---|-----------------|
 ||--0-0--0---0---0-|-0-0--0-9-0-7-11-|

 


 |


 | Gtr II


 

 
 | PM--------------------------|
 ||-----------------|-----------------|
 ||o----------------|-----------------|
 ||-----------------|-----------------|
 ||-----------------|-----------------|
 ||o----------------|-----------------|
 ||--0-0--0-9-0-8-0-|-0-0--0-9-0-7-11-|

 


 


 PM---| PM PM


 

 
 |----------------|-----------------------------------||
 |----------------|----------------------------------o||
 |----------------|-----------------------------------||
 |----------------|-----------------------------------||
 |--------7---6---|-10h13p10-9h12p9-10h13p10-9h12p9--o||
 |-0-0--0---0---0-|-----------------------------------||

 


 |


 

 
 | PM-----------|
 |----------------|-----------------------------------||
 |----------------|----------------------------------o||
 |----------------|-----------------------------------||
 |----------------|-----------------------------------||
 |----------------|--7h10p=7-6h=9p6--7h10p=7-6h=9p6--o||
 |-0-0--0-9-0-8-0-|-----------------------------------||

 


 


 Pre-Chorus


 Gtrs I, II


 

 
 PM---| PM---|

 


 3x


 

 
 ||-----------------------||----------------------|
 ||o---------------------o||----------------------|
 ||-----------------------||----------------------|
 ||---------7h10p7-6h9p6--||--------7h10p7-9h12p9-|
 ||o---------------------o||----------------------|
 ||--5-5--5---------------||-5-5--5---------------|

 


 


 Gtrs I, II


 

 
 PM---| PM---|

 


 3x


 

 
 ||-----------------------||----------------------|
 ||o---------------------o||----------------------|
 ||-----------------------||----------------------|
 ||-----------------------||----------------------|
 ||o--------7h10p7-6h9p6-o||--------7h10p7-9h12p9-|
 ||--0-0--0---------------||-0-0--0---------------|

 


 


 Gtrs I, II


 PM---|


 3x


 

 
 ||-----------------------||---------------------------|
 ||o---------------------o||---------------------------|
 ||-----------------------||---------------------------|
 ||---------7h10p7-6h9p6--||-7h10p7-6h9p6-7h10p7-6h9p6-|
 ||o---------------------o||---------------------------|
 ||--5-5--5---------------||---------------------------|

 


 


 Chorus


 Gtr I


 

 
 ||----------------------------------|-------------------------------------|
 ||o---------------------------------|-------------------------------------|
 ||----------------------------------|-------------------------------------|
 ||----------------------------------|-------------------------------------|
 ||o---------6-6-6-6-7-7-7-7---------|-9-9-9-9-10-10-10-10---------9-9-9-9-|
 ||--0-0-0-0-----------------7-7-7-7-|---------------------6-6-6-6---------|

 


 |


 | Gtr II


 

 
 ||----------------------------------|-------------------------------------|
 ||o---------------------------------|-------------------------------------|
 ||----------------------------------|-------------------------------------|
 ||----------------------------------|-------------------------------------|
 ||o---------6-6-6-6-7-7-7-7---------|-9-9-9-9-10-10-10-10---------9-9-9-9-|
 ||--0-0-0-0-----------------7-7-7-7-|---------------------6-6-6-6---------|
 |-----------------------------------------|
 |-----------------------------------------|
 |-----------------------------------------|
 |-----------------------------------------|
 |-7-7-7-7-12-12-12-12-10-10-10-10-9-9-9-9-|
 |-----------------------------------------|

 


 |


 

 
 |-----------------------------------------|
 |-----------------------------------------|
 |-----------------------------------------|
 |-----------------------------------------|
 |-7-7-7-7--9--9--9--9--7--7--7--7-6-6-6-6-|
 |-----------------------------------------|

 


 


 Gtr I


 

 
 |---------------------------------|-------------------------------------|
 |---------------------------------|-------------------------------------|
 |---------------------------------|-------------------------------------|
 |---------------------------------|-------------------------------------|
 |---------6-6-6-6-7-7-7-7---------|-9-9-9-9-10-10-10-10---------9-9-9-9-|
 |-0-0-0-0-----------------7-7-7-7-|---------------------6-6-6-6---------|

 


 |


 | Gtr II


 

 
 |---------------------------------|-------------------------------------|
 |---------------------------------|-------------------------------------|
 |---------------------------------|-------------------------------------|
 |---------------------------------|-------------------------------------|
 |---------6-6-6-6-7-7-7-7---------|-9-9-9-9-10-10-10-10---------9-9-9-9-|
 |-0-0-0-0-----------------7-7-7-7-|---------------------6-6-6-6---------|

 


 


 1.


 

 
 |----------------------------------------||
 |---------------------------------------o||
 |----------------------------------------||
 |----------------------------------9-----||
 |-7-7-7-7-12-12-12-12-10-10-10-10-------o||
 |----------------------------------------||

 


 |


 

 
 |----------------------------------------||
 |---------------------------------------o||
 |----------------------------------------||
 |----------------------------------------||
 |-7-7-7-7--9--9--9--9--7--7--7--7-10----o||
 |----------------------------------------||

 


 


 2.


 Gtrs I, II


 PM----|


 

 
 |--------------------|
 |--------------------|
 |--------------------|
 |---------7--5--6----|
 |-7-7-7-7-7--5--6----|
 |---------5--3--4----|

 


 


 Guitar Solo


 Gtr I


 

 
 PM| PM PM---| PM PM---| PM
 |-------------------|------------------------|
 |-------------------|------------------------|
 |-------------------|------------------------|
 |-------------------|------------------------|
 |------6---7--------|---9----10---------9----|
 |--0-0---0---0--0-0-|------0----0--0--0----0-|

 


 |


 | Gtr II


 | ~~~~~~~~~~~~~~~~~~~~~~~~


 

 
 |-------------------|------------------------|
 |-10-----------12---|-(12)--------12-10-8-10-|
 |-------------------|------------------------|
 |-------------------|------------------------|
 |-------------------|------------------------|
 |-------------------|------------------------|

 


 


 PM ~


 

 
 |----------------------------------|
 |----------------------------------|
 |----------------------------------|
 |----------------------------------|
 |-7----12-12-12-12-10-10-10-10-9---|
 |----0-----------------------------|

 


 |


 

 
 |----------------------------------|
 |-8-----8--------------------------|
 |---11-------11-----9----11----9-8-|
 |----------------------------------|
 |----------------------------------|
 |----------------------------------|

 


 


 Gtr I


 PM| PM PM--| PM PM---| PM PM ~


 

 
 |-----------------|----------------------|---------------------------------|
 |-----------------|----------------------|---------------------------------|
 |-----------------|----------------------|---------------------------------|
 |-----------------|----------------------|------------------------------9--|
 |-----6---7-------|--9----10---------9---|--7---12-12-12-12-10-10-10-10----|
 |-0-0---0---0-0-0-|-----0----0--0-0----0-|----0----------------------------|

 


 |


 | Gtr II


 

 
 |-----------------|----------------------|---------------------------------|
 |-----------------|----------------------|---------------------------------|
 |-9---------------|-(9)----9-8-12---11---|-12------------------------------|
 |-----------------|----------------------|-------9-------------------------|
 |-----------------|----------------------|---------------------------------|
 |-----------------|----------------------|---------------------------------|

 


 


 Gtr I


 

 
 PM| PM PM---| PM PM---| PM
 |-------------------------|-------------------------|
 |-------------------------|-------------------------|
 |-------------------------|-------------------------|
 |-------------------------|-------------------------|
 |--------6-----7----------|--9----10-----------9----|
 |--0--0-----0-----0--0--0-|-----0-----0--0--0-----0-|

 


 |


 | Gtr II


 

 
 |-------------------------|-------------------------|
 |-------------------------|-------------------------|
 |-11--9-11-12-11--9-11--9-|-11-12-11--9-12-11-12-14-|
 |-------------------------|-------------------------|
 |-------------------------|-------------------------|
 |-------------------------|-------------------------|

 


 |


 | Gtr III


 

 
 |-------------------------|-------------------------|
 |-------------------------|-------------------------|
 |-14-12-14-16-14-12-14-12-|-14-16-14-12-16-14-16-17-|
 |-------------------------|-------------------------|
 |-------------------------|-------------------------|
 |-------------------------|-------------------------|

 


 


 PM ~~


 

 
 |-------------------------------------|
 |-------------------------------------|
 |-------------------------------------|
 |-------------------------------------|
 |--7----12-12-12-12-10-10-10-10--9----|
 |-----0-------------------------------|

 


 |


 

 
 |-------------------------------------|
 |-------------------------------------|
 |-12-11-12----11----12----14----12-11-|
 |-------------------------------------|
 |-------------------------------------|
 |-------------------------------------|

 


 |


 

 
 |-------------------------------------|
 |-------------------------------------|
 |-16-14-16----14----16----17----16-14-|
 |-------------------------------------|
 |-------------------------------------|
 |-------------------------------------|

 


 


 Gtr I


 

 
 PM| PM PM--| PM PM------| PM
 |-------------------|-------------------------|
 |-------------------|-------------------------|
 |-------------------|-------------------------|
 |-------------------|-------------------------|
 |-------6---7-------|---9----10-----------9---|
 |---0-0---0---0-0-0-|------0----0--0----0---0-|

 


 |


 | Gtr II


 

 
 |-------------------|-------------------------|
 |-------------------|-------------------------|
 |-/16---------------|-(16)--------16b17r======|
 |-------------------|-------------------------|
 |-------------------|-------------------------|
 |-------------------|-------------------------|

 


 |


 | Gtr III


 

 
 |-------------------|-------------------------|
 |-------------------|-------------------------|
 |--16---------------|-(16)--------16----------|
 |-------------------|-------------------------|
 |-------------------|-------------------------|
 |-------------------|-------------------------|

 


 


 PM ~


 

 
 |-----------------------------------|
 |-----------------------------------|
 |-----------------------------------|
 |-----------------------------------|
 |---7----12-12-12-12-10-10-10-10-9--|
 |------0----------------------------|

 


 |


 | ~~~~


 

 
 |-----------------------------------|
 |-----------------------------------|
 |--16-------------------------------|
 |-----------------------------------|
 |-----------------------------------|
 |-----------------------------------|

 


 |


 | ~~~~


 

 
 |-----------------------------------|
 |-----------------------------------|
 |-(16)------------------------------|
 |-----------------------------------|
 |-----------------------------------|
 |-----------------------------------|

 


 


 Bridge


 Gtr I


 PM| PM PM PM PM PM| PM PM| PM


 

 
 ||---------------------|------------------|----------------|
 ||o--------------------|------------------|----------------|
 ||---------------------|------------------|----------------|
 ||-----------------9---|--------------4---|-5------5----7--|
 ||o-----10---12--------|-12---10----------|----------------|
 ||--8-8----8----8----8-|----8-----5-5---5-|----7-7---7-----|

 


 |


 | Gtr II


 | PM| PM PM PM PM| PM PM| PM


 

 
 ||---------------------|------------------|----------------|
 ||o--------------------|------------------|----------------|
 ||---------------------|------------------|----------------|
 ||-------9---10---12---|-10----9------7---|-9------9---10--|
 ||o--------------------|------------------|----------------|
 ||--8-8----8----8----8-|----8-----5-5---5-|----7-7---7-----|

 


 


 PM| PM PM PM PM PM PM PM


 

 
 |--------------------|-------------------|---------------------||
 |--------------------|-------------------|--------------------o||
 |--------------------|-------------------|---------------------||
 |----------------9---|-------------------|-----10p=9---7h=9----||
 |-----10---12--------|-12---10--10p9---7h|=9------------------o||
 |-8-8----8----8----8-|----8----------0---|---0-------0---------||

 


 |


 | PM| PM PM PM PM PM PM


 

 
 |--------------------|-------------------|---------------------||
 |--------------------|-------------------|--------------------o||
 |--------------------|-------------------|---------------------||
 |------9---10---12---|-10----9---9p7---5h|=7-------------------||
 |--------------------|-------------------|-----12p10---9h10---o||
 |-8-8----8----8----8-|----8----------0---|---0-------0---------||

 


 


 Verse C


 Gtr I


 

 
 PM| PM------|
 ||---------------------|-----------------------||
 ||o--------------------|----------------------o||
 ||---------------------|-----------------------||
 ||---------------------|-----------------------||
 ||o-2-2------------2-2-|-2-2------------------o||
 ||--0-0------------0-0-|-0-0-------------------||

 


 |


 | Gtr II


 

 
 | PM----| PM----------|
 ||---------------------|-----------------------||
 ||o--------------------|----------------------o||
 ||---------------------|-----------------------||
 ||---------------------|-----------------------||
 ||o---------7h10p7-----|---------7h10p7-6h9p6-o||
 ||--0-0-0-0--------0-0-|-0-0-0-0---------------||

 


 


 Gtr I


 

 
 |--------------------|------------------------|
 |--------------------|------------------------|
 |--------------------|------------------------|
 |-2------------------|-(2)--------------------|
 |-2------------------|-(2)--------------------|
 |-0------------------|-(0)--------------------|

 


 |


 | Gtr II


 

 
 | PM----| PM------------|
 |--------------------|------------------------|
 |--------------------|------------------------|
 |--------------------|------------------------|
 |--------------------|------------------------|
 |---------7h10p7-----|-----------7h10p7-6h9p6-|
 |-0-0-0-0--------0-0-|--0--0-0-0--------------|
 |----------------------|------------------------|
 |----------------------|------------------------|
 |----------------------|------------------------|
 |-(2)------------------|-(2)--------------------|
 |-(2)------------------|-(2)--------------------|
 |-(0)------------------|-(0)--------------------|

 


 |


 

 
 | PM-----| PM------------|
 |----------------------|------------------------|
 |----------------------|------------------------|
 |----------------------|------------------------|
 |----------------------|------------------------|
 |-----------7h10p7-----|-----------7h10p7-6h9p6-|
 |--0--0-0-0--------0-0-|--0--0-0-0--------------|
 PM----| PM----------|
 ||---------------------|-----------------------||-|
 ||o--------------------|----------------------o||-|
 ||---------------------|-----------------------||-|
 ||---------------------|-----------------------||-|
 ||o---------7h10p7-----|---------7h10p7-6h9p6-o||-|
 ||--0-0-0-0--------0-0-|-0-0-0-0---------------||-|

 


 


 |


 

 
 | PM----| PM----------|
 ||---------------------|-----------------------||-|
 ||o--------------------|----------------------o||-|
 ||---------------------|-----------------------||-|
 ||---------------------|-----------------------||-|
 ||o---------7h10p7-----|---------7h10p7-6h9p6-o||-|
 ||--0-0-0-0--------0-0-|-0-0-0-0---------------||-|
 PM----| PM----------|
 ||-----------------------|---------------------------||
 ||o----------------------|--------------------------o||
 ||-----------------------|---------------------------||
 ||-----------------------|---------------------------||
 ||o---------10h13p10-----|---------10h13p10-9h12p9--o||
 ||--0-0-0-0----------0-0-|-0-0-0-0-------------------||

 


 |


 

 
 | PM----| PM----------|
 ||-----------------------|---------------------------||
 ||o----------------------|--------------------------o||
 ||-----------------------|---------------------------||
 ||-----------------------|---------------------------||
 ||o----------7h10p=7-----|----------7h10p=7-6h=9p6--o||
 ||--0-0-0-0----------0-0-|-0-0-0-0-------------------||

 


 


 Pre-Chorus


 Gtrs I, II


 

 
 PM---| PM---|

 


 3x


 

 
 ||-----------------------||----------------------|
 ||o---------------------o||----------------------|
 ||-----------------------||----------------------|
 ||---------7h10p7-6h9p6--||--------7h10p7-9h12p9-|
 ||o---------------------o||----------------------|
 ||--5-5--5---------------||-5-5--5---------------|

 


 


 Gtrs I, II


 

 
 PM---| PM---|

 


 3x


 

 
 ||-----------------------||----------------------|
 ||o---------------------o||----------------------|
 ||-----------------------||----------------------|
 ||-----------------------||----------------------|
 ||o--------7h10p7-6h9p6-o||--------7h10p7-9h12p9-|
 ||--0-0--0---------------||-0-0--0---------------|

 


 


 Gtrs I, II


 PM---|


 3x


 

 
 ||-----------------------||---------------------------|
 ||o---------------------o||---------------------------|
 ||-----------------------||---------------------------|
 ||---------7h10p7-6h9p6--||-7h10p7-6h9p6-7h10p7-6h9p6-|
 ||o---------------------o||---------------------------|
 ||--5-5--5---------------||---------------------------|

 


 


 Chorus


 Gtr I


 

 
 ||----------------------------------|-------------------------------------|
 ||o---------------------------------|-------------------------------------|
 ||----------------------------------|-------------------------------------|
 ||----------------------------------|-------------------------------------|
 ||o---------6-6-6-6-7-7-7-7---------|-9-9-9-9-10-10-10-10---------9-9-9-9-|
 ||--0-0-0-0-----------------7-7-7-7-|---------------------6-6-6-6---------|

 


 |


 | Gtr II


 

 
 ||----------------------------------|-------------------------------------|
 ||o---------------------------------|-------------------------------------|
 ||----------------------------------|-------------------------------------|
 ||----------------------------------|-------------------------------------|
 ||o---------6-6-6-6-7-7-7-7---------|-9-9-9-9-10-10-10-10---------9-9-9-9-|
 ||--0-0-0-0-----------------7-7-7-7-|---------------------6-6-6-6---------|
 |-----------------------------------------|
 |-----------------------------------------|
 |-----------------------------------------|
 |-----------------------------------------|
 |-7-7-7-7-12-12-12-12-10-10-10-10-9-9-9-9-|
 |-----------------------------------------|

 


 |


 

 
 |-----------------------------------------|
 |-----------------------------------------|
 |-----------------------------------------|
 |-----------------------------------------|
 |-7-7-7-7--9--9--9--9--7--7--7--7-6-6-6-6-|
 |-----------------------------------------|

 


 


 Gtr I


 

 
 |---------------------------------|-------------------------------------|
 |---------------------------------|-------------------------------------|
 |---------------------------------|-------------------------------------|
 |---------------------------------|-------------------------------------|
 |---------6-6-6-6-7-7-7-7---------|-9-9-9-9-10-10-10-10---------9-9-9-9-|
 |-0-0-0-0-----------------7-7-7-7-|---------------------6-6-6-6---------|

 


 |


 | Gtr II


 

 
 |---------------------------------|-------------------------------------|
 |---------------------------------|-------------------------------------|
 |---------------------------------|-------------------------------------|
 |---------------------------------|-------------------------------------|
 |---------6-6-6-6-7-7-7-7---------|-9-9-9-9-10-10-10-10---------9-9-9-9-|
 |-0-0-0-0-----------------7-7-7-7-|---------------------6-6-6-6---------|

 


 


 1.


 

 
 |----------------------------------------||
 |---------------------------------------o||
 |----------------------------------------||
 |----------------------------------9-----||
 |-7-7-7-7-12-12-12-12-10-10-10-10-------o||
 |----------------------------------------||

 


 |


 

 
 |----------------------------------------||
 |---------------------------------------o||
 |----------------------------------------||
 |----------------------------------------||
 |-7-7-7-7--9--9--9--9--7--7--7--7-10----o||
 |----------------------------------------||

 


 


 2.


 [5/4] Gtrs I, II


 

 
 PM-------|
 |-----------------------*|
 |-----------------------*|
 |-----------------------*|
 |---------7--5--6--2----*|
 |-7-7-7-7-7--5--6--2----*|
 |---------5--3--4--0----*|

 


 


 Tablature Legend


 

 
 ----------------

 


 h - hammer-on


 p - pull-off


 b - bend


 pb - pre-bend


 r - bend release (if no number after the r, then release immediately)


 /\ - slide into or out of (from/to "nowhere")


 s - legato slide


 S - shift slide


 - natural harmonic


 (n) - artificial harmonic


 n(n) - tapped harmonic


 ~ - vibrato


 tr - trill


 T - tap


 TP - trem. picking


 PM - palm muting


 \n/ - tremolo bar dip; n = amount to dip


 \n - tremolo bar down


 n/ - tremolo bar up


 /n\ - tremolo bar inverted dip


 = - hold bend; also acts as connecting device for hammers/pulls


 - volume swell (louder/softer)


 x - on rhythm slash represents muted slash


 o - on rhythm slash represents single note slash


 


 Misc Legend


 

 
 -----------


Important: The song above is NOT stored on the Chordie server. The original song is hosted at www.azchords.com. Chordie works as a search engine and provides on-the-fly formatting. Chordie does not index songs against artists'/composers' will. To remove this song please click here.

This song is displayed as text-only. Transposing and tuning is only available for chordpro-songs.
Rate #2 of 3 versions

Login - add to songbook

SHARE PAGE  




You need to log in to post comments