Guitar Tabs, Chords and Lyrics
Update 25:10. 13:00. Site is back up running again. Songbooks are recovered. Woring on getting search back up..


O Katrina!  Black Lips

Main riff:
 
 e|-------------------|
 B|-------------------|
 G|-------------------|
 D|-2--2-4-2-0--0---0-|
 A|---------------2---|
 E|-------------------|

Intro:
Guitar 1 ‚?? Main riff
Guitar 2
 
 e|-------12------------10---------------12----------2-------|
 B|--9--9----9-9\7-7--7----7---7---7/9-9----9-9\7-7--3--2-2--|
 G|--9---------9\7-7---------7-----7/9-9------9\7-7--2--2-2--| x2
 D|-----------------------------------------------------2-2--|
 A|----------------------------------------------------------|
 E|----------------------------------------------------------|

Verse:
Guitar 1 ‚?? Main riff
Guitar2
[E]O Katrina, [D]why you gotta be [E]mean?[D] [A]
[E]You saw a highway [D]down in New Or[E]leans[D] [A]
[E]I can‚??t believe what [D]I saw on the T[E]V screen[D] [A]
[E]O Katrina, [D]why can‚??t you be s[E]erene?[D] [A]
Chorus:
Guitar 1 ‚?? Main riff
Guitar 2
[E]O Katrina, [D]O Katrina!
[E]O Katrina, [D]O Katrina!
[E]O Katrina, [D]why you gotta be [E]mean?
[D] Why you gotta be...[B]
Solo:
Guitar 1
 
 e|--------------------------------12------12----------------------------|
 B|-------12------12----------15b17---15b17---15b17r15-------------------|
 G|--14b16---14b16---14b16r14--------------------------------------------|
 D|----------------------------------------------------------------------|
 A|----------------------------------------------------------------------|
 E|----------------------------------------------------------------------|
 e|-------------------------------------------------------|--------------|
 B|-------12------12-----------------10------10-----------|--------------|
 G|--14b16---14b16---14b16r14---12b14---12b14----12b14r12-|-x2-----------|
 D|-------------------------------------------------------|--------------|
 A|-------------------------------------------------------|--------------|
 E|-------------------------------------------------------|--------------|

Guitar 2 ‚?? Intro
Verse
Chorus
Solo x2
Ending:
Both guitars play:
E D E D A (listen to song for timing/variations)
end on E

Important: The song above is NOT stored on the Chordie server. The original song is hosted at www.azchords.com. Chordie works as a search engine and provides on-the-fly formatting. Chordie does not index songs against artists'/composers' will. To remove this song please click here.

Text color:
Chord color:
Chord grids: 
Font size:    
Page size: 

A B D E
Rate #1 of 3 versions

Jango Player

Login - add to songbook

SHARE PAGE  



You need to log in to post comments