Guitar Tabs, Chords and Lyrics
Server problems seems to be fixed. Chordie has been experiencing problems with songs disappearing. These issues now seems to be fixed, but still verifying the fix. If you find anything strange, please email admin@chordie.com.


Zeitgeist  Black Sabbath

[Verse I] 
A[D#]stral engines in rever[F#/A#]se
I[D#]'m falling through the uni[A#]verse aga[D#]in[F#/A#] [D#] [A#]
D[D#]own among a deadmen's v[F#/A#]ision
[D#]Faded dreams and nuclear f[A#]ission sp[D#]ent[F#/A#] [D#] [A#]
[Cborus] 
[G#5]The strings of theory are holding up the race[Badd9]
[G#5]The puppets falling to the gro[Badd9]und
[G#5]The love I feel as I fly endlessly through sp[Badd9]ace
G#5 F# F D# C# B A# D# (riff 2)
Lost in time I wonder will my ship be found
[Riff 1] 
[Verse II] 
[D#]On this sinking ship I[F#/A#] travel
[D#]Faster than the speed of l[A#]ight[D#] [F#/A#] [D#] [A#]
[D#]Not so supernova burns[F#/A#]
[D#]The black holes turn and f[A#]ade from sight[D#] [F#/A#] [D#] [A#]
[Cborus] 
[G#5]The strings of theory hide in the human race[Badd9]
[G#5]The answers buried underground[Badd9]
[G#5]The love I feel as I fly endlessly through sp[Badd9]ace
G#5 F# F D# C# B A# D# (riff 2)
Lost in time, I wonder will my ship be found
[Last part] 
[C]And very soon
[D]The Bomber's moon
[C]Will show us light
And as we cra[D]sh
We'll pray and[C] kiss
And say goodni[D]ght
Goodnig[Em]ht
[Guitar solo] 
 
 ----------------------------------------------------|
 ------^---------------------------------------------|
 -12-11-12--------------------------11--12-----------|
 ----------12/14----------------------------12--14---|
 ------------------------------------9-/10-----------|
 ---------------------------------0------------------|
 -----------------------------------------------------------------|
 -----------------------------------------------------------------|
 /14--12----------------------------------------------------------|
 --------14-12----14--12--12--/12~~---------------^---------------|
 --------------14----------------------14-12-10-12-10-12-10-------|
 -----------------------------------------------------------12----|

| | |
 
 ---------------------------------|
 ----------------)----------------|
 ------12-14---15-----------------|
 ---14------14-----14~------------|
 -14------------------------------|
 ---------------------------------|

*
 
 -----------------------------------------------------------------------|
 -----------------------------------------------------------------------|
 14--11-----------------------------------------------------------------|
 ------12----14--12--12--12~---12---------------------------------------|
 --------14-----------------14----14\12-10----12--12--14-12~---10-12----|
 ------------------------------------------12------------------------12-|

| | | | | |
 
 -15-12----14-12----------------------------------------------------------|
 -------15-------15-12----12----------------------------------------------|
 ----------------------14----12\11-14-11----11----------------------------|
 ----------------------------------------12----14-12-14-12----------------|
 ----------------------------------------------------------14\12-10/12-14-|
 -------------------------------------------------------------------------|
 ---------------------------------------------------------------|
 ---------------------------------------------------------------|
 ---------------------------------------------------------------|
 ------------9--10--9-10-9~~------------------------------------|
 -9--10--12--------------------12-10-9~~~~~---------^-----------|
 -------------------------------------------------12-10-12------|
 ------------------------------------------------------------------------|
 ------------------------------------------------------------------------|
 ---____----------------------------------------------------12-11--14-12-|
 --/ \----------12-----------------------------7/9-12-14--------------|
 -9-10-9----9--10-----9--10--12------------7-9-10------------------------|
 --------12--------------------------------------------------------------|
 --------------------------------__-------------------|
 -------------------------------/ \------------------|
 ---------------------12--14--12-14-12-11-------------|
 -12--14-----------------------------------14--12--14-|
 ---------14~-----------------------------------------|
 -----------------------------------------------------|
 -------------------------|
 -------------------------|
 -------------------------|
 --------7-9--------------|
 -7-9-10------5-7~--------|
 -------------------------|


Important: The song above is NOT stored on the Chordie server. The original song is hosted at www.azchords.com. Chordie works as a search engine and provides on-the-fly formatting. Chordie does not index songs against artists'/composers' will. To remove this song please click here.

Text color:
Chord color:
Chord grids: 
Font size:    
Page size: 

A# Badd9 C D D# Em F#/A# G#5
Rate #1 of 1 versions

Jango Player

Login - add to songbook

SHARE PAGE  




You need to log in to post comments