Guitar Tabs, Chords and Lyrics
Server problems seems to be fixed. Chordie has been experiencing problems with songs disappearing. These issues now seems to be fixed, but still verifying the fix. If you find anything strange, please email admin@chordie.com.


Faithless   Black Veil Brides

 
 D|--------------------------------------------------------------------------------------------|
 A|--------------------------------------------------------------------------------------------|
 F|--------------------------------------------------------------------------------------------| [x8]
 C|--------------------------------------------------------------------------------------------|
 G|------6---3-5---6---3-5--------------------6---3-5---6---35----9h10p9h10p9h10-6h10p6h10p6h10|
 C|0--0-0-0-0---0-0-0-0---0-0-5-0-0-3-1-0--0-0-0-0---0-0-0-0--0-0------------------------------|

 


 


 Note: First 6 repetitions the lead and rhythm guitarists take it turns to play, beginning with lead.


 Final 2 are played together. On the final hammer on/pull off section, it is palm muted.


 


 [Verse Pt.1] 


 

 
 D|---------------------------------------------------------------------------------------|
 A|---------------------------------------------------------------------------------------|
 F|---------------------------------------------------------------------------------------|
 C|----------------------5---3------------------------3-0-3-6-5-1-------------------------|
 G|-----5---3---5---8---7--------5-3-------5---3-5----3-0-3-6-5-1-------------------------|
 C|0-0-0-0-0-0-0-0-0-0-0--0-0-0-0---0-0-0-0-0-0---0-0-3-0-3-6-5-1-------------------------|

 


 


 [Verse Pt.2] 


 

 
 D|------------------------------------------------------------------------------------|
 A|------------------------------------------------------------------------------------|
 F|------------------------------------------------------------------------------------|
 C|-----------------------5------------------------------------------------------------|
 G|------5---3---5---8---7-3-5-3-0-----------------------------------------------------|
 C|0--0-0-0-0-0-0-0-0-0-0----------3-5-3-0-0-0-5-0-0-3-5-0-0-6-3-5-3-5-3-0-0-1-3-0-----|

 


 


 In the second verse, the Harmony part in the second part is like this


 

 
 D|------------------------------------------------------------------------------------------|
 A|------------------------------------------------------------------------------------------|
 F|------------------------------------------------------------------------------------------|
 C|-------------------------8--7-------------------------3-0-3-6-5-1-------------------------|
 G|------8---7---8---12---10--------8-7-------8---7-8----3-0-3-6-5-1-------------------------|
 C|0--0-0-0-0-0-0-0-0--0-0---0-0-0-0---0-0-0-0-0-0---0-0-3-0-3-6-5-1-------------------------|
 D|--------------------------------------------------------------------------------------|
 A|--------------------------------------------------------------------------------------|
 F|--------------------------------------------------------------------------------------|
 C|-------------------------8------------------------------------------------------------|
 G|------8---7---8---12---10-3-5-3-0-----------------------------------------------------|
 C|0--0-0-0-0-0-0-0-0--0-0----------3-5-3-0--0-0-5-0-0-3-5-0-0-6-3-5-3-5-3-0-0-1-3-0-----|

 


 


 [Pre-Cborus] 


 

 
 D|-----------------------------------------------------------------------------|
 A|-----------------------------------------------------------------------------|
 F|7-7---------------------7-7----------------------7-7-------------------------|
 C|7-7-6-6-5---------------7-7-6-6-5----------------7-7-6-6-5-------------------|
 G|5-5-6-6-5---------------5-5-6-6-5----------------5-5-6-6-5-------------------|
 C|----6-6-5-3-5-3-6-5-3-0-----6-6-5--0-3-0-3-5-6-5-----6-6-5-3-5-3-6-5-3-0-----|
 PM------------------------------------------|
 D|---------------------------------------------------------------------------|
 A|---------------------------------------------------------------------------|
 F|3-3-2-2-6--6-6--6-6-6-6----------------------------------------------------|
 C|3-3-2-2-6--6-6--6-6-6-6----------------------------------------------------|
 G|1-1-0-0-4--4-4--4-4-4-4----------------------------------------------------|
 C|---------------------------------------------------------------------------|

 


 


 [Cborus Rbytbm] 


 

 
 D|----------------------------------------------------------------------------|
 A|----------------------------------------------------------------------------|
 F|7---------------------------------------------------------------------------|
 C|7-[x16]-8-------3-------7---------------------------------------------------|
 G|5-------8-[x16]-3-[x16]-7-[x8]-------7--7-10-8-7----------------------------|
 C|--------8-------3-------7------7--10--10------------------------------------|

 


 


 [Cborus Lead] 


 

 
 D|----------------------------------------------------------------------------|
 A|----------------------------------------------------------------------------|
 F|7-----9-----10-----7-----10-----12------14-----10-----14-----12-----9-------|
 C|-[x8]--[x4]---[x4]--[x8]---[x4]---[x4]----[x4]---[x4]---[x4]---[x4]--[x8]---|
 G|5-----7-----8------5-----8------10------12-----8------12-----10-----7-------|
 C|----------------------------------------------------------------------------|
 D|----------------------------------------------------------------------------|
 A|----------------------------------------------------------------------------|
 F|7-----9-----10-----7-----10-----12-----10-----9-----10-----9-----5----------|
 C|-[x8]--[x4]---[x4]--[x4]---[x4]---[x4]---[x4]--[x4]---[x4]--[x4]--[x8]------|
 G|5-----7-----8------5-----8------10-----8------7-----8------7-----3----------|
 C|----------------------------------------------------------------------------|

 


 


 [Post-Cborus] 


 

 
 D|--------------------------------------------------------------------------------------------|
 A|--------------------------------------------------------------------------------------------|
 F|--------------------------------------------------------------------------------------------|
 C|--------------------------------------------------------------------------------------------|
 G|------6---3-5---6---3-5-------------------6---3-5---6---3-5----3*---------------------------|
 C|0--0-0-0-0---0-0-0-0---0-0-5-0-0-3-1-0-0-0-0-0---0-0-0-0---0-0------------------------------|

 


 


 [Breakdown] 


 Part 1: Play open strings along with drum pattern. Whammy is Fret 7 on the E string.


 Part 2: Open Strings followed by:


 


 

 
 D|---------------------------------------------------------------------------|
 A|---------------------------------------------------------------------------|
 F|---------------------------------------------------------------------------|
 C|-First ending:---------------Second ending---------------------------------|
 G|---------------------3-----------------------------------------------------|
 C|---------------6-5-3---3-1b---------------3-0-3-6-5-1b---------------------|

 


 


 [Solo Rbytbm] 


 

 
 D|----------------------------------------------------------------------------|
 A|----------------------------------------------------------------------------|
 F|----------------------------------------------------------------------------|
 C|0-------5-3-5-6-5-1---0-------3-0-3-6-5-1-----------------------------------|
 G|0-[x20]-5-3-5-6-5-1---0-[x20]-3-0-3-6-5-1-----------------------------------|
 C|0-------5-3-5-6-5-1---0-------3-0-3-6-5-1-----------------------------------|

 


 


 The open string strumming pattern is clearer in the video: https://youtu.be/HZNdYQ1GWIE?t=6m35s


 This link takes you to the right point in the video.


 


 [Solo] 


 


 I haven't worked it out yet, will update when I have...


 


 [Double Cborus Lead] 


 Alternate Parts 1 & 2


 


 Part 1 Part 2 Ending Lick


 

 
 D|15-10--10------10-|15-10--10----------10|----------------------------------|
 A|-----13--13--13---|-----13--13--13--13--|----------------------------------|
 F|-----------14-----|-----------14--14----|12-14-12-10-12-10----10-----------|
 C|------------------|---------------------|------------------14--------------|
 G|------------------|---------------------|----------------------------------|
 C|------------------|---------------------|----------------------------------|

 


 


 [Outro] 


 


 Part 1: Breakdown Riff


 


 Part 2: End:


 

 
 D|-------------------------------------------------|-------------------------|
 A|-------------------------------------------------|-------------------------|
 F|-------------------------------------------------|-------------------------|
 C|0------3-0-3-6-5-3-------------------------------|0------------------------|
 G|0-[x3}-3-0-3-6-5-3-[x4]--------------------------|0------------------------|
 C|0------3-0-3-6-5-3-------------------------------|0------------------------|


Important: The song above is NOT stored on the Chordie server. The original song is hosted at www.azchords.com. Chordie works as a search engine and provides on-the-fly formatting. Chordie does not index songs against artists'/composers' will. To remove this song please click here.

This song is displayed as text-only. Transposing and tuning is only available for chordpro-songs.
Rate #1 of 1 versions

Jango Player

Login - add to songbook

SHARE PAGE  




You need to log in to post comments