Guitar Tabs, Chords and Lyrics
Server problems seems to be fixed. Chordie has been experiencing problems with songs disappearing. These issues now seems to be fixed, but still verifying the fix. If you find anything strange, please email admin@chordie.com.


Saviour  Black Veil Brides

 
 |----------------------------------------------------------------------------------------------| repeat x5
 |-------------0-----------------------------------------------0--------------------------------|
 |-----0----0-----0------0-----0----0----0-----0-----0----0------0------0------0----0-----0----0|
 |-------4------------4----------4----------4-----------4-----------4------------4-----------4--|
 |---7----------------------7----------5----------3------------------------3------------5-------|
 |----------------------------------------------------------------------------------------------|
 |-----------------------| repeat x2
 |-------------0---------|
 |-----0----0-----0-----0|
 |-------4-----------4---|
 |---7-------------------|
 |-----------------------|

chords:
I [Em]never meant to [C]be the one who [D]kept you from the [G]dark
but [Em]now I know my [C]wounds are sewn
[D]because of who you a[G]re
I will [Em]take this burden [C]on and [D]become the holy [G]one
but rem[Em]ember i am [C]human
and im [D]bound to sing this [G]song
[C]so [D]hear my [Em]voice [C]remind you [D]not to [Em]bleed
[C]i am [D]here
[Em]A sa[C]viour
[D]will be [G]there
[Em]when you are [C]feeling a[D]lone, [G]ohh
[E]A sa[C]viour
for [D]all that you [G]do
[Em]so live [C]freely with[D]out their [G]harm
so [Em]here i write my [C]lullaby to [D]all the lonely [G]ones
re[Em]member as you [C]learn to try to [D]be the one you [G]love
so i can [Em]take this [C]pen and [D]teach you how to [G]live
what is [Em]left un[C]said, the gre[D]atest gift i [G]give
[C]so [D]hear my [Em]voice [C]remind [D]you not to [Em]bleed
[C]i am [D]here
[Em]A sa[C]viour
[D]will be [G]there
[Em]when you are [C]feeling [D]alone, [G]ohh
[G]A sa[C]viour
for [D]all that you [G]do
[Em]so live [C]freely with[D]out their [G]harm
when i [Em]hear your [C]cries
praying for [D]light
i will be [G]there
Em C D G x2
[D]i will always be [G]there [Em]

Important: The song above is NOT stored on the Chordie server. The original song is hosted at www.azchords.com. Chordie works as a search engine and provides on-the-fly formatting. Chordie does not index songs against artists'/composers' will. To remove this song please click here.

Text color:
Chord color:
Chord grids: 
Font size:    
Page size: 

C D E Em G
Rate #1 of 2 versions

Jango Player

Login - add to songbook

SHARE PAGE  




You need to log in to post comments