Guitar Tabs, Chords and Lyrics
Server problems seems to be fixed. Chordie has been experiencing problems with songs disappearing. These issues now seems to be fixed, but still verifying the fix. If you find anything strange, please email admin@chordie.com.


Underneath the Same Moon  Blake Shelton

Blake Shelton - Underneath The Same Moon
Riff 1:
 
 e----------------------------------------------------------------------
 B--11---11---10---10---11---11---10---10---11---11---13---13---11------
 G----------------------------------------------------------------------
 D-----12---12---12---12---12---12---12---12---12---12---12---12---12---
 A----------------------------------------------------------------------
 E----------------------------------------------------------------------
 e----------
 B--11---10-
 G----------
 D----12----
 A----------
 E----------

[G]Shadows of the night
Moving [F]on the ground
Like [Bb]silent clouds
They follow [C]me a[D]round
[G]As I wander the dark
Through the [F]midnight mist
Remembering [Bb]our last kiss
Do you know how [C]much
You're [D]missed
Chorus:
[Bb]Tonight I stand in this lonely place[A] [G]
I search the heavens
For some saving grace
And I [D]cry, [Bb]dying with[C]out you[Bb]
I know you're somewhere
Looking up there too[A] [G]
Right now that's all
Two distant hearts can do
Oh-[D]ooh, at least were [Bb]underneath
Under[C]neath The Same Moon[G]
Riff 2:
 
 e--------------------------------------------------
 B--11---11---10---10---11---11---11---13---15------
 G---------------------------------------------15---
 D-----12---12---12---12---12---12----------------12
 A--------------------------------------------------
 E--------------------------------------------------

[G]Picturing your face
[F]Flowers in your hair
Like you [Bb]always wear
Oh I can [C]see you [D]there
[G]Longing to be touched
But you're [F]out of reach
Oh [Bb]hold on please
Won't you [C]wait for [D]me
Chorus:
[A]La la [G]la
La la la
La la la
Oh-[D]ooh at least were [Bb]underneath
Under[C]neath The Same Moon[G]
Riff 2:
[G]Shadows of the night
Moving [F]on the ground
Like [Bb]silent clouds
They follow [C]me a[D]round

Important: The song above is NOT stored on the Chordie server. The original song is hosted at www.azchords.com. Chordie works as a search engine and provides on-the-fly formatting. Chordie does not index songs against artists'/composers' will. To remove this song please click here.

Text color:
Chord color:
Chord grids: 
Font size:    
Page size: 

A Bb C D F G
Rate #1 of 5 versions

Login - add to songbook

SHARE PAGE  



You need to log in to post comments