Guitar Tabs, Chords and Lyrics
Major upgrade!! After one year development the new version of Chordie is now online! Please give feedback.


Last Last Time  Bleu Edmondson

(Complete)
Last Last Time Bleu Edmondson Acoustic capoed at 4th fret
Intro
[F] [A] [G] [F] 
 
 ----7---------------7---------------7------------------7---------------7---------------7--------
 --5---5-4---5-----5---5-4---5-----5---5-4---5--------5---5-4---5-----5---5-4---5-----5---5-4---5
 ------------------------------------------------------------------------------------------------
 ------------------------------------------------------------------------------------------------
 ------------------------------------------------------------------------------------------------
 ------------------------------------------------------------------------------------------------

[A] [G]  
 
 ----7---------------7---------|C C G
 --5---5-4---5-----5---5-4--5--| Empty parking lot half a cigarette Got it of the ground so
 ------------------------------| F C Am
 ------------------------------| it's a little wet I'm on the south side walking sideways
 ------------------------------| G F
 ------------------------------| I got to drunk again

[C]Now It's a cold night a kind of late this yea[G]r plans made the
cops are gone and[Fm] we're outa here but I need to
[C]catch my breath cause its [Am]3am a[G]nd I still m[F]iss someone
Chorus
 
 ----7----------| C Em
 --5---5-4---5--| This is the last last time I beg the sun to 

shine addicted to a [Am]memory and its [G]killin me This
 
 ---------------| F
 -Play 8xs------| is the last last time

-Over chorus---|
 
 ---------------|

Bridge Lead
[F] [A] [G] [F] [A] [G]  
 
 ----7----------| C
 --5---5-4---5--| Now I should hide at home cause I cant drive
 -play 5xs------| G F
 ---------------| Everybody's callin me to see if I'm alive thy say
 ---------------| C Am G F
 ---------------| they got a friend I need meet and she's never heard of you

Repeat Chorus
Oo[Am]h ooh ooh [G] [Am] ooh [F]ooh ooh [G] ohhh
Solo Lead C Em G C Em G
 
 ------------------------------------------------------------------------------------------------------
 7-9--9-7-9---10-10-10--9-9-9--7-7-7--4-4-4-4/5---7-9---9---7-9----------------------------------------
 ----9-9---9------------------------------------------9---9-----9---9-9-9--8-8-8--6-6-6--4-4-4---------
 ----------------------------------------------------------------------------------------------6-6-6---
 ------------------------------------------------------------------------------------------------------
 ------------------------------------------------------------------------------------------------------

[C] [Em] [Am] [G] [C]  
 
 ---------------|This is the last last time I beg the sun to shine addicted to a memory and its killin me
 ---------------|----------------------------------------------------------------------------------------
 ---------------|------------------------------------------------------------------------------4-6-8-9-11
 4-4-4----------|----------------------------------------------------------------------------------------
 -------7-7-7-7-|------------------------------------------------------------------------------2-4-6-7-9-
 ---------------|----------------------------------------------------------------------------------------

This is the last last time I t[Em]ry to change your mind I'm [Am]addicted to the misery and
[G]its killing me and its killing me Wont stop killing me
 
 --------------------------------------------------------0-
 ----4-6-8-9-11--------4-6-8-9-11---4-6-8-9-11-----------1-
 --------------------------------------------------------0-
 ----2-4-6-7-9---------2-4-6-7-9----2-4-6-7-9------------2-
 --------------------------------------------------------3-
 ----------------------------------------------------------


Important: The song above is NOT stored on the Chordie server. The original song is hosted at www.azchords.com. Chordie works as a search engine and provides on-the-fly formatting. Chordie does not index songs against artists'/composers' will. To remove this song please click here.

Text color:
Chord color:
Chord grids: 
Font size:    
Page size: 

A Am C Em F Fm G
Rate #1 of 6 versions

Login - add to songbook

SHARE PAGE  




You need to log in to post comments