Guitar Tabs, Chords and Lyrics
Major upgrade!! After one year development the new version of Chordie is now online! Please give feedback.


Fallible  Blues Traveler

Tuning: Standard
Harmonica Intro...
Intro: E F#
With [E]an air of [F#]indignation[E] [F#]
Smiles a [E]painted po[F#]rcelain face[E] [F#]
And w[E]e're supposed to [F#]trust this[E] [F#]
Deco[E]rum has its [F#]place[E] [F#]
But [A]you and I [B]beyond that[A] [B]
With a [A]question I[B] might ask[A] [B]
How [E]suddenly the [F#]smile doth crack[E] [F#]
When we s[E]lip beneath the [F#]mask[E] [F#]
And they're [F#]fallible[A] [F#] [A]
Yeah they're[F#] fallible[A] [F#] [A]
And we [F#]hold up a m[A]irror
And we [F#]hate what we [A]see
And we [F#]keep on trekking w[A]estward
I[F#]nfallibly[A]
[F#] [A] [F#] [A] [F#] [A]  
End Lick
 
 e|--------------------------|
 B|--------------------------|
 G|--------------------------|
 D|-10-10-9-7-9-7------------|
 A|--------------9-7-9-9-7-9-|
 E|--------------------------|

[E]God I wanna [F#]touch you[E] [F#]
In the p[E]lace you wanna [F#]hide[E] [F#]
[E]Dare you to come a[F#]fter me[E] [F#]
Com[E]mit my "narc[F#]isside"[E] [F#]
[A]Punishing the [B]guilty[A] [B]
Was [A]never the in[B]tent[A] [B]
I just [E]busted out of [F#]prison baby[E] [F#]
That's [E]really where I [F#]went[E] [F#]
And I'm f[F#]allible[A] [F#] [A]
Yeah I'm [F#]fallible[A] [F#] [A]
And we [F#]hold up a m[A]irror
And we [F#]hate what we [A]see
And we [F#]keep on trekking w[A]estward
I[F#]nfallibly[A]
[F#] [A] [F#] [A] [F#] [A]  
End Lick
 
 e|--------------------------|
 B|--------------------------|
 G|--------------------------|
 D|-10-10-9-7-9-7------------|
 A|--------------9-7-9-9-7-9-|
 E|--------------------------|

Harmonica Solo:
E F#(8X)
A B (4X)
E F#(4X)
A E (4X)
In the [E]name of all the [F#]power[E] [F#]
That's [E]centered in your [F#]hand[E] [F#]
If you [E]crave some [F#]revolution[E] [F#]
Take poss[E]ession of your [F#]stand[E] [F#]
It's the [A]only one you'll [B]get to make[A] [B]
In a moment [A]come and [B]gone[A] [B]
So [E]do your best to[F#] stay awake[E] [F#]
And [E]own the path you're [F#]on[E] [F#]
Cause you're[F#] fallible[A] [F#] [A]
Yeah you're [F#]fallible[A] [F#] [A]
And we [F#]hold up a m[A]irror
And we [F#]hate what we [A]see
And we [F#]keep on trekking w[A]estward
I[F#]nfallibly[A]
[F#]Inf[A]allibly[F#] [A]
[F#]Forgiving nothing
Last Lick
 
 e|--------------------------------------------------------------------------------------------------------|
 B|--------------------------------------------------------------------------------------------------------|
 G|--------------------------------------------------------------------------------------------------------|
 D|-10-10-9-7-9-7---10-10-9-7-9-7---10-10-9-7-9-7--7-------------------------------------------------------|
 A|---------------9---------------9---------------9-9-7-7----Not sure about this part, but end on--9-9-7-9-|
 E|----------------------------------------------------9-9-7-----------------------------------------------|


Important: The song above is NOT stored on the Chordie server. The original song is hosted at www.azchords.com. Chordie works as a search engine and provides on-the-fly formatting. Chordie does not index songs against artists'/composers' will. To remove this song please click here.

Text color:
Chord color:
Chord grids: 
Font size:    
Page size: 

A B E F#
Rate #1 of 1 versions

Jango Player

Login - add to songbook

SHARE PAGE  



You need to log in to post comments